Oops, an error
Loading. Please wait.

Será tab

version 2
version 2

Whole song

40 views 1 this week
no commentswrite comment
1 2 3 4 5
3 more votes to show rating
add to favorites
×
Save as Personal and add changes to this tab that will be seen only by you. Learn more ›
×
You can save this tab as Personal to edit and correct it or add notes. All changes will be seen only by you. Learn more »
launch autoscroll
font size
0
reset
how to read this tab
guitar tuner
edit
Autoscroll
slow
fast
+/-
esc
set tempo
stop
Bueno no tengo mi guitarra aca porlo que no me acuerdo
si esto esta bien pero creo que si... ...de ultima des
pues la paso bien.

INTRO

     RE           SIm          SOL        LA
1 --------0h2---------------------0--------0--
2 ------3-----------2h3---------3----------2--
3 ----2-----------4-----------0------------0--  
4 --0-----------4-----------------------2--2--
5 ------------2----------------------0--------
6 -------------------------3------------------

ESTROFA
     RE           SIm          SOL        LA
1 -----------0h2----------------------------0--------0--
2 --------3----------------2h3------------3----------2--
3 -----2----------------4--------------0-------------0--  
4 --0-----------------4---------------------------2--2--
5 -----------------2-------------------------0----------
6 ---------------------------------3--------------------
    catalina dijo que me amava y para mi fue suficiente
     RE           SIm          SOL        LA
1 -----------0h2----------------------------0----------0--
2 --------3----------------2h3------------3------------2--
3 -----2----------------4--------------0---------------0--  
4 --0-----------------4---------------------------2----2--
5 -----------------2-------------------------0------------
6 ---------------------------------3----------------------
   con alfileres y con tinta china nos tatuamos para siempre

PRECORO
SOL         LA            SIm
    y el amor sobre la yerba
SOL         LA          RE
    hiso magica la fiesta

despues se repite con el mismo punteado del comienso y
se repite el punteado con distintas estrofas los mismos
acordes del precoro con otra letra y sigue esto:
          
         RE
...alcanzar
    RE        LA
sigue tu camino
     SOL           LA
siempre sera el mio
    RE         LA
sigue tu camino
    SOL     RE     LA
y asi  libre seras .....


lo otro no me acuerdo saquen uds.
guachitaaa

            
            
Suggest correction
Creating personal tab
Creating personal tab
You can edit any tab online and save it as your Personal.

You can edit, replace or remove any tab part or add personal notes – all changes will be seen only by you.

Personal tabs can be accessed anytime from any device, even offline.
Learn more »
Give kudos to tab author, rate the tab!
1 2 3 4 5
comments
print report bad tab
guest
Wanna post a correction for this tab? Suggest correction