Oops, an error
Loading. Please wait.

Aún Estás En Mis Sueños tab

version 2
version 2

Whole song

Interactive

304 views 3 this week
no commentswrite comment
1 2 3 4 5
3 more votes to show rating
add to favorites
×
Save as Personal and add changes to this tab that will be seen only by you. Learn more ›
×
You can save this tab as Personal to edit and correct it or add notes. All changes will be seen only by you. Learn more »
launch autoscroll
font size
0
reset
how to read this tab
guitar tuner
edit
Autoscroll
slow
fast
+/-
esc
set tempo
stop
Hola a todos! Es mi primera canción y espero les guste y la hagan sonar.
Ojalá el exelente gitarrista Walter Giardino vea esto!
Sos mi ídolo en la viola Walter!
Bue, aca les va:

Nota: ----:blanca     ---: Negra       --:corchea      -:semicorchea


INTRO:

1:--------------------------------------------------------------
2:--------------------------------------------------------------
3:-----4-------6--6--6--6--6--4--------4------------------------
4:-6---4---4---6--6--6--6--6--4----6---4---4---2--2---2--2--2---
5:-6---2---4---4--4--4--4--4--2----6---2---4---2--2---2--2--2---
6:-4-------2-----------------------4-------2---0--0---0--0--0---

1:---------------------------------------------
2:---------------------------------------------
3:-----4-------6--6--6--6--6--4-------4--------
4:-6---4---4---6--6--6--6--6--4---6---4---4----
5:-6---2---4---4--4--4--4--4--2---6---2---4----
6:-4-------2----------------------4-------2----

Verso 1:

1:---------------------------------------------------------------------
2:-----------------------------------------------4----------------4----
3:-----------------------------------------4----------------4----------
4:-------2-----1----------2-----1-------4-----4----------4-----4-------
5:----2-----2----------2-----2-------2----------------2----------------
6:-0----------------0--------------------------------------------------

1:---------------------------------------------------------------------
2:-------------5-------------------------------------------------------
3:-------6----------------------4----------------3----------------3----
4:----6-----6-------------6----------------4----------------4----------
5:-4-------------------6-----6----------4-----4----------4-----4-------
6:------------------4----------------2----------------2----------------

1:---------------------------------------------------------------------
2:-----------------------------------------------4----------------4----
3:-----------------------------------------4----------------4----------
4:-------2-----1----------2-----1-------4-----4----------4-----4-------
5:----2-----2----------2-----2-------2----------------2----------------
6:-0----------------0--------------------------------------------------

1:---------------------------------------------------------------------
2:-------------5---------------------------------5---------------------
3:-------6----------------------4----------6----------------------4----
4:----6-----6-------------6-------------6-----6-------------6----------
5:-4-------------------6-----6-------4-------------------6-----6-------
6:------------------4---------------------------------4----------------

Pre-coro:

1:-------------------------------------------------------
2:-------------------------------------------------------
3:----------------4--------6--------------------------4--
4:-------2-----4--------6-----------6--------4-----4-----
5:----2-----2--------4-----------6--------4-----2--------
6:-0--------------------------4--------2-----------------

1:-----------------------------------------------
2:-----------------------------------------------
3:-8---8--8--8--8--8--8--8--8--8--8--8--8--8--8--
4:-8---8--8--8--8--8--8--8--8--8--8--8--8--8--8--
5:-6---6--6--6--6--6--6--6--6--6--6--6--6--6--6--
6:-----------------------------------------------

Coro:

1:-------------------------------------------------------------------
2:-----------------------------------------------4--------------2----
3:-------------4----------------1-----------4----------------------3-
4:-------6-----------------2-------------4-------------------4-------
5:----6-----------------2-------------2-------------------4----------
6:-4-----------------0---------------------------------2-------------

1:-------------------------------------------------------------------
2:-----------------------------------------------4----------------8--
3:-------------4----------------1-----------4----------------8-------
4:-------6-----------------2-------------4----------------8----------
5:----6-----------------2-------------2----------------6-------------
6:-4-----------------0-----------------------------------------------


1:-------------------------------------------------------------------
2:-----------------------------------------------4--------------2----
3:-------------4----------------1-----------4----------------------3-
4:-------6-----------------2-------------4-------------------4-------
5:----6-----------------2-------------2-------------------4----------
6:-4-----------------0---------------------------------2-------------

1:-------------------------------------------------------------------
2:-----------------------------------------------4----------------8--
3:-------------4----------------1-----------4----------------8-------
4:-------6-----------------2-------------4----------------8----------
5:----6-----------------2-------------2----------------6-------------
6:-4-----------------0-----------------------------------------------

Interdule:

1:--------------------------------------------------------------
2:--------------------------------------------------------------
3:-----4-------6--6--6--6--6--4--------4------------------------
4:-6---4---4---6--6--6--6--6--4----6---4---4---2--2---2--2--2---
5:-6---2---4---4--4--4--4--4--2----6---2---4---2--2---2--2--2---
6:-4-------2-----------------------4-------2---0--0---0--0--0---

1:---------------------------------------------
2:---------------------------------------------
3:-----4-------6--6--6--6--6--4-------4--------
4:-6---4---4---6--6--6--6--6--4---6---4---4----
5:-6---2---4---4--4--4--4--4--2---6---2---4----
6:-4-------2----------------------4-------2----

Verso 2:

1:-------------------------------------------------------------------
2:-----------------------------------------------4----------------4--
3:-----------------------------------------4----------------4--------
4:-------2-----1----------2-----1-------4-----4----------4-----4-----
5:----2-----2----------2-----2-------2----------------2--------------
6:-0----------------0------------------------------------------------
                                                    Punteo(1)
1:-------------------------------------------------------------------
2:-------------5-----------------------------------------------------
3:-------6----------------------4----------------3----------------3--
4:----6-----6-------------6----------------4----------------4--------
5:-4-------------------6-----6----------4-----4----------4-----4-----
6:------------------4----------------2----------------2--------------
                                                            Punteo(2)
1:-------------------------------------------------------------------
2:-----------------------------------------------4----------------4--
3:-----------------------------------------4----------------4--------
4:-------2-----1----------2-----1-------4-----4----------4-----4-----
5:----2-----2----------2-----2-------2----------------2--------------
6:-0----------------0------------------------------------------------

1:-------------------------------------------------------------------
2:-------------5---------------------------------5-------------------
3:-------6----------------------4----------6----------------------4--
4:----6-----6-------------6-------------6-----6-------------6--------
5:-4-------------------6-----6-------4-------------------6-----6-----
6:------------------4---------------------------------4--------------

Pre-coro:

1:-------------------------------------------------------
2:-------------------------------------------------------
3:----------------4--------6--------------------------4--
4:-------2-----4--------6-----------6--------4-----4-----
5:----2-----2--------4-----------6--------4-----2--------
6:-0--------------------------4--------2-----------------

1:-----------------------------------------------
2:-----------------------------------------------
3:-8---8--8--8--8--8--8--8--8--8--8--8--8--8--8--
4:-8---8--8--8--8--8--8--8--8--8--8--8--8--8--8--
5:-6---6--6--6--6--6--6--6--6--6--6--6--6--6--6--
6:-----------------------------------------------

Coro:

1:-------------------------------------------------------------------
2:-----------------------------------------------4--------------2----
3:-------------4----------------1-----------4----------------------3-
4:-------6-----------------2-------------4-------------------4-------
5:----6-----------------2-------------2-------------------4----------
6:-4-----------------0---------------------------------2-------------

1:-------------------------------------------------------------------
2:-----------------------------------------------4----------------8--
3:-------------4----------------1-----------4----------------8-------
4:-------6-----------------2-------------4----------------8----------
5:----6-----------------2-------------2----------------6-------------
6:-4-----------------0-----------------------------------------------


1:-------------------------------------------------------------------
2:-----------------------------------------------4--------------2----
3:-------------4----------------1-----------4----------------------3-
4:-------6-----------------2-------------4-------------------4-------
5:----6-----------------2-------------2-------------------4----------
6:-4-----------------0---------------------------------2-------------

1:-------------------------------------------------------------------
2:-----------------------------------------------4----------------8--
3:-------------4----------------1-----------4----------------8-------
4:-------6-----------------2-------------4----------------8----------
5:----6-----------------2-------------2----------------6-------------
6:-4-----------------0-----------------------------------------------

Solo:

1:-------------------------------------------------------------------
2:-9----7------------------------------------------------------------
3:---------9--------8----6-------6-----8--6---6----1--4-----4---4----
4:--------------------------9---------------9------------------------
5:-------------------------------------------------------------------
6:-------------------------------------------------------------------

1:--------------------------------------------------------------------
2:----------------------------------7-4---4-7-4-7-4---4-7-4-7-4---4-7-
3:-4---3-4-3--1--4---3-4-3--1---6-------6-----------6-----------6-----
4:--------------------------------------------------------------------
5:--------------------------------------------------------------------
6:--------------------------------------------------------------------

1:----------------------------------------------------14-16-16---14-12
2:-4-7-4---4---4-----------------------------------16-----------------
3:-------6---6---6-4-6-4----------------------------------------------
4:-----------------------6-4-6-4--------------------------------------
5:-------------------------------7-4-7-4------------------------------
6:---------------------------------------7-4--------------------------

1:-12-------12-14-14------12-14-14------12-14-12----------------------
2:-------14------------14------------14----------14---14-12-14-12-----
3:--------------------------------------------------------------------
4:--------------------------------------------------------------------
5:--------------------------------------------------------------------
6:--------------------------------------------------------------------

1:--------------------------------------------------------------------
2:---------------------------------------------------------------12---
3:-13-11-------------------------------13---11------13---11-----------
4:--------14-11-14-11---------------------------14-----------14-------
5:--------------------14-11-14-11-------------------------------------
6:-----------------------------9--------------------------------------

1:------------------------------------------------------------
2:-14---14--14--12---11----9----7----5----4----5----4----2----
3:------------------------------------------------------------
4:------------------------------------------------------------
5:------------------------------------------------------------
6:------------------------------------------------------------

Coro:

1:-------------------------------------------------------------------
2:-----------------------------------------------4--------------2----
3:-------------4----------------1-----------4----------------------3-
4:-------6-----------------2-------------4-------------------4-------
5:----6-----------------2-------------2-------------------4----------
6:-4-----------------0---------------------------------2-------------

1:-------------------------------------------------------------------
2:-----------------------------------------------4----------------8--
3:-------------4----------------1-----------4----------------8-------
4:-------6-----------------2-------------4----------------8----------
5:----6-----------------2-------------2----------------6-------------
6:-4-----------------0-----------------------------------------------


1:-------------------------------------------------------------------
2:-----------------------------------------------4--------------2----
3:-------------4----------------1-----------4----------------------3-
4:-------6-----------------2-------------4-------------------4-------
5:----6-----------------2-------------2-------------------4----------
6:-4-----------------0---------------------------------2-------------

1:-------------------------------------------------------------------
2:-----------------------------------------------4----------------8--
3:-------------4----------------1-----------4----------------8-------
4:-------6-----------------2-------------4----------------8----------
5:----6-----------------2-------------2----------------6-------------
6:-4-----------------0-----------------------------------------------

Final:

1:------------------------------------------------------
2:------------------------------------------------------
3:---------------------------8----6-----6---8--6--------
4:-9---8--6-----9---8--6-------------9------------------
5:------------------------------------------------------
6:------------------------------------------------------

1:------------------------------------------------------
2:------------------------------------------------------
3:---------------------------11----9--8-----------------
4:-9---8--6-----9---8--6-----------------11--9---8------
5:------------------------------------------------------
6:------------------------------------------------------

1:------------------------------------------------------
2:------------------------------------------------------
3:---------------------------8----6-----6---8--6--------
4:-9---8--6-----9---8--6-------------9------------------
5:------------------------------------------------------
6:------------------------------------------------------

1:------------------------------------------------------
2:------------------------------------------------------
3:---------------------------11----9--8-----------------
4:-9---8--6-----9---8--6-----------------11--9---8------
5:------------------------------------------------------
6:------------------------------------------------------

1:------------------------------------------------------
2:------------------------------------------------------
3:---------------------------8----6-----6---8--6--------
4:-9---8--6-----9---8--6-------------9------------------
5:------------------------------------------------------
6:------------------------------------------------------

1:------------------------------------------------------
2:------------------------------------------------------
3:---------------------------11----9--8-----------------
4:-9---8--6-----9---8--6-----------------11--9---8------
5:------------------------------------------------------
6:------------------------------------------------------


En las parte de "Punteo" El capo de Walter hace esto
(en el lugar exacto donde dice):

Punteo(1):

1:---------------------------------------------
2:-----12-11-12--------12---11-----------------
3:-11------------11-------------11--11---9-----
4:---------------------------------------------
5:---------------------------------------------
6:---------------------------------------------

Punteo(2):

1:--------------------------
2:--------------------------
3:-8---8--------------------
4:----------11--9--9--------
5:--------------------------
6:--------------------------


Comentario: Quisisera dedicar esta tablatura a my gorda que la re amo!
Es my forma de decirte FELIZ AÑO Y MEDIO!
Gue, no hace falta aclarar que la canción va tambien dedicada a vos
my cielo,auque debería llamarse "Estas en mis sueños",
porque siempre estas en mis sueños...Te Amo!

Jebus (el22)

("My" mail: j_y_c_4ever@

            
            
Suggest correction
Creating personal tab
Creating personal tab
You can edit any tab online and save it as your Personal.

You can edit, replace or remove any tab part or add personal notes – all changes will be seen only by you.

Personal tabs can be accessed anytime from any device, even offline.
Learn more »
Give kudos to tab author, rate the tab!
1 2 3 4 5
comments
print report bad tab
guest
Wanna post a correction for this tab? Suggest correction