Oops, an error
Loading. Please wait.

Aún Estás En Mis Sueños bass

version 1
version 1

Whole song

Interactive

365 views 1 this week
no commentswrite comment
1 2 3 4 5
2 more votes to show rating
add to favorites
×
Save as Personal and add changes to this tab that will be seen only by you. Learn more ›
×
You can save this tab as Personal to edit and correct it or add notes. All changes will be seen only by you. Learn more »
launch autoscroll
font size
0
reset
guitar tuner
edit
Autoscroll
slow
fast
+/-
esc
set tempo
stop
Aqui les dejo la parte del bajo de esta cancion que me encanta
Rata Blanca!!


INTRO:

   G#m  B   F#    C#m / B        G#m  B   F# E/F#   E/F#
G|------------------------------|------------------------|
D|------------------------------|------------------------|
A|------2-2------4-4-4-4-4-4/2--|-----2-2----------------|
E|--4-------2-------------------|--4------2---0/2---0/2--|


   G#m  B   F#   C#m / B         G#m  B  F#
G|------------------------------|------------------------|
D|------------------------------|------------------------|
A|------2-2------4-4-4-4-4-4/2--|-----2------------------|
E|--4-------2-------------------|--4------2--------------|


Verso 1:

     Hoy desperté con un montón de marcas en mi piel
    E                       B
G|-----------------------|-----------------------|
D|-----------------------|-----------------------|
A|-----------------------|--2---2-2----2---2-2---|
E|--0---0-0----0---0-0---|-----------------------|

      alguien por la noche me las dejó...
   C#m        G#m           F#
G|-----------------------|-----------------------|
D|-----------------------|-----------------------|
A|--4---4-4--------------|-----------------------|
E|-------------4---4-4---|--2---2-2----2---2-2---|

      Quiero saber si esto fue la magia de tus labios...
    E                       B
G|-----------------------|-----------------------|
D|-----------------------|-----------------------|
A|-----------------------|--2---2-2----2---2-2---|
E|--0---0-0----0---0-0---|-----------------------|

         Hay perfume de mujer  flotando aqui...
   C#m           G#m              C#m       G#m
G|---------------------------|-----------------------|
D|---------------------4h6p4-|-----------------------|
A|--4---4-4------------------|--4---4-4--------------|
E|-------------4---4-4-------|------------4---4--4---|

Pre-Coro:
    El conjuro de un cuento de amor ya me atrapó lo
        E       B               C#m    G#m     F#
G|--------------------------------------------------|
D|--------------------------------------------------|
A|--------------2---------------4-------------------|
E|------0------------------------------2-------2----|

puedo sentir
    B     D#m
|------------------------|
|------------------------|
|--2-----6-6-6-6-6-6-6-6-|
|------------------------|


CORO:

     Y por las noches      puedo sentir su calor
    G#m         E            B          F#
G|-----------------------|-----------------------|
D|-----------------------|-----------------------|
A|-----------------------|--2---2-2--------------|
E|--4---4-4----0---0-0---|-------------2---2-2---|

     Su dulce magia,        me hace perder la razón
    G#m         E            B         D#m
G|-----------------------|-----------------------|
D|-----------------------|-----------------------|
A|-----------------------|--2---2-2----6---6-6---|
E|--4---4-4----0---0-0---|-----------------------|

    Y de mis sueños        creo que un día escapó
    G#m         E            B          F#
G|-----------------------|-----------------------|
D|-----------------------|-----------------------|
A|-----------------------|--2---2-2--------------|
E|--4---4-4----0---0-0---|-------------2---2-2---|

    Para esconderse         dentro de mi corazón...
   G#m         E            B         D#m
G|-----------------------|--------------------------|
D|-----------------------|--------------------------|
A|-----------------------|--2---2-2----6--6-6-6-6-6-|
E|--4---4-4----0---0-0---|--------------------------|


INTRO:

   G#m  B   F#    C#m / B        G#m  B   F# E/F#   E/F#
G|------------------------------|------------------------|
D|------------------------------|------------------------|
A|------2-2------4-4-4-4-4-4/2--|-----2-2----------------|
E|--4-------2-------------------|--4------2---0/2---0/2--|


   G#m  B   F#   C#m / B         G#m  B  F#
G|------------------------------|------------------------|
D|------------------------------|------------------------|
A|------2-2------4-4-4-4-4-4/2--|-----2------------------|
E|--4-------2-------------------|--4------2--------------|


Verso 2:

      Como escapar nada  real me importa conocer
    E                       B
G|-----------------------|-----------------------|
D|-----------------------|-----------------------|
A|-----------------------|--2---2-2----2---2-2---|
E|--0---0-0----0---0-0---|-----------------------|

        solo esperare hasta dormir...
   C#m          G#m           F#
G|-----------------------|-----------------------|
D|-----------------------|-----------------------|
A|--4---4-4--------------|-----------------------|
E|-------------4---4-4---|--2---2-2----2---2-2---|

    Estoy aqui, frente al gran espejo para convencer
    E                       B
G|-----------------------|-----------------------|
D|-----------------------|-----------------------|
A|-----------------------|--2---2-2----2---2-2---|
E|--0---0-0----0---0-0---|-----------------------|

     A los duendes que dirán  cómo llegar...
   C#m           G#m              C#m       G#m
G|---------------------------|-----------------------|
D|---------------------4h6p4-|-----------------------|
A|--4---4-4------------------|--4---4-4--------------|
E|-------------4---4-4-------|------------4---4--4---|


Pre-Coro:
      A aprender el hechizo ideal que junte los sueños
        E       B               C#m    G#m     F#
G|--------------------------------------------------|
D|--------------------------------------------------|
A|--------------2---------------4-------------------|
E|------0------------------------------2-------2----|

  con la realidad
    B     D#m
|------------------------|
|------------------------|
|--2-----6-6-6-6-6-6-6-6-|
|------------------------|


CORO:

     Y por las noches      puedo sentir su calor
    G#m         E            B          F#
G|-----------------------|-----------------------|
D|-----------------------|-----------------------|
A|-----------------------|--2---2-2--------------|
E|--4---4-4----0---0-0---|-------------2---2-2---|

     Su dulce magia,        me hace perder la razón
    G#m         E            B         D#m
G|-----------------------|-----------------------|
D|-----------------------|-----------------------|
A|-----------------------|--2---2-2----6---6-6---|
E|--4---4-4----0---0-0---|-----------------------|

    Y de mis sueños        creo que un día escapó
    G#m         E            B          F#
G|-----------------------|-----------------------|
D|-----------------------|-----------------------|
A|-----------------------|--2---2-2--------------|
E|--4---4-4----0---0-0---|-------------2---2-2---|

    Para esconderse         dentro de mi corazón...
   G#m         E            B         D#m
G|-----------------------|--------------------------|
D|-----------------------|--------------------------|
A|-----------------------|--2---2-2----6--6-6-6-6-6-|
E|--4---4-4----0---0-0---|--------------------------|


Guitar Solo:

    E         B            C#m        C#m
G|-----------------------|-----------------------|
D|-----------------------|-----------------------|
A|-------------2---2-2---|--4---4-4----4---4-4---|
E|--0---0-0--------------|-----------------------|

    E          F#          G#m        G#m
G|-----------------------|-----------------------|
D|-----------------------|-----------------------|
A|-----------------------|-----------------------|
E|--0---0-0----2---2-2---|--4---4-4----4---4-4---|


    E         B            C#m        C#m
G|-----------------------|-----------------------|
D|-----------------------|-----------------------|
A|-------------2---2-2---|--4---4-4----4---4-4---|
E|--0---0-0--------------|-----------------------|

    E         G#m          F#         F#
G|-----------------------|-----------------------|
D|-----------------------|-----------------------|
A|-----------------------|-----------------------|
E|--0---0-0----4---4-4---|--2---2-2----2---2-2---|


   D#m       D#m
G|-------------------------|
D|-------------------------|
A|--6---6-6---6--6-6-6-6-6-|
E|-------------------------|


CORO:

     Y por las noches      puedo sentir su calor
    G#m         E            B          F#
G|-----------------------|-----------------------|
D|-----------------------|-----------------------|
A|-----------------------|--2---2-2--------------|
E|--4---4-4----0---0-0---|-------------2---2-2---|

     Su dulce magia,        me hace perder la razón
    G#m         E            B         D#m
G|-----------------------|-----------------------|
D|-----------------------|-----------------------|
A|-----------------------|--2---2-2----6---6-6---|
E|--4---4-4----0---0-0---|-----------------------|

    Y de mis sueños        creo que un día escapó
    G#m         E            B          F#
G|-----------------------|-----------------------|
D|-----------------------|-----------------------|
A|-----------------------|--2---2-2--------------|
E|--4---4-4----0---0-0---|-------------2---2-2---|

    Para esconderse         dentro de mi corazón...
   G#m         E            B         D#m
G|-----------------------|--------------------------|
D|-----------------------|--------------------------|
A|-----------------------|--2---2-2----6--6-6-6-6-6-|
E|--4---4-4----0---0-0---|--------------------------|


Outro: (Las mismas notas de coro)

                                    Aun estas en mis sueños.....
    G#m         E            B          F#
G|-----------------------|-----------------------|
D|-----------------------|-----------------------|
A|-----------------------|--2---2-2--------------|
E|--4---4-4----0---0-0---|-------------2---2-2---|

 Sueños...
    G#m         E            B         D#m
G|-----------------------|-----------------------|
D|-----------------------|-----------------------|
A|-----------------------|--2---2-2----6---6-6---|
E|--4---4-4----0---0-0---|-----------------------|

                                    Dentro de mi corazón.....
    G#m         E            B          F#
G|-----------------------|-----------------------|
D|-----------------------|-----------------------|
A|-----------------------|--2---2-2--------------|
E|--4---4-4----0---0-0---|-------------2---2-2---|

 Corazon...
    G#m         E            B         D#m
G|-----------------------|-----------------------|
D|-----------------------|-----------------------|
A|-----------------------|--2---2-2----6---6-6---|
E|--4---4-4----0---0-0---|-----------------------|


Gracias..!
Mi correo por si alguna duda:
robertovgtpllm@

            
            
Suggest correction
Creating personal tab
Creating personal tab
You can edit any tab online and save it as your Personal.

You can edit, replace or remove any tab part or add personal notes – all changes will be seen only by you.

Personal tabs can be accessed anytime from any device, even offline.
Learn more »
Give kudos to tab author, rate the tab!
1 2 3 4 5
comments
print report bad tab
guest
Wanna post a correction for this tab? Suggest correction