Oops, an error
Loading. Please wait.

Aún Estás En Mis Sueños tab

version 3
version 3

Whole song

Interactive

314 views 6 this week
no commentswrite comment
1 2 3 4 5
3 more votes to show rating
add to favorites
×
Save as Personal and add changes to this tab that will be seen only by you. Learn more ›
×
You can save this tab as Personal to edit and correct it or add notes. All changes will be seen only by you. Learn more »
launch autoscroll
font size
0
reset
how to read this tab
guitar tuner
edit
Autoscroll
slow
fast
+/-
esc
set tempo
stop
HOLA ESTA ES MI ROLA PREFE DE RATA,
SE LA QUIERO DEDICAR A FERNANDA VILLA DE PUEBLA PUE
FER SABES QUE ERES MI ADORACION TE AMO NENA.

mi correo: purorock_pablo@

b : estirado hacia arriba
s : slide
/ : slide
v : vibrato
h : ligado ascendente
p : ligado descendente
r : martillo ( estirado hacia abajo )
* : hay que darle con el tremolo o palanca
~ : dejar sonar

intro:

e|---------------------------------------------
b|---------------------------------------------
g|----4-4------6---6-6---------4-4-------------
D|-6--4-4-4--6-6-6-6-6---6--6--4-4-4----2---2--
A|-6--2-2-4--4---4-----4----6--2-2-4--0-2-0-2--
E|-4------2-----------------4------2--0---0----

e|--------------------------------------------
b|--------------------------------------------
g|----4-4------6---6-6---------4--------------
D|-6--4-4-4--6-6-6-6-6---6--6--4--4~----------
A|-6--2-2-4--4---4-----4----6--2--4~----------
E|-4------2-----------------4-----2~----------


e|-------------------------------------------
b|-------------------------------------------
g|---------------------4-4-4-----4-4-4-------
D|-2-2-2-----2-2-2-----4-4-4-----4-4-4-------
A|-2-2-2-----2-2-2-----2-2-2-----2-2-2-------
E|-0-0-0-----0-0-0---------------------------

hoy desperté con un montón de marcas en mi piel...

e|-------------------------------------------
b|-------------------------------------------
g|-6-6-6-------------------------------------
D|-6-6-6-----6-6-6-----4-4-4-----4-4-4-------
A|-4-4-4-----6-6-6-----4-4-4-----4-4-4-------
E|-----------4-4-4-----2-2-2-----2-2-2-------

alguien por la noche me las dejó...

e|-------------------------------------------
b|-------------------------------------------
g|---------------------4-4-4-----4-4-4-------
D|-2-2-2-----2-2-2-----4-4-4-----4-4-4-------
A|-2-2-2-----2-2-2-----2-2-2-----2-2-2-------
E|-0-0-0-----0-0-0---------------------------

 quiero saber si esto fue la magia de tus labios

e|-------------------------------------------
b|-------------------------------------------
g|-6-6-6--------------6-6-6------------------
D|-6-6-6-----6-6-6----6-6-6------6-6-6-------
A|-4-4-4-----6-6-6----4-4-4------6-6-6-------
E|-----------4-4-4---------------4-4-4-------

 hay perfume de mujer flotando aquí

e|-------------------------------------------------------
b|-------------------------------------------------------
g|-----------7--6-----4---------------7-7-7-7-7-7-7-7----
D|-----2---7----6-----4-----4------2--7-7-7-7-7-7-7-7----
A|---2---5------4-----2-----4------2--5-5-5-5-5-5-5-5----
E|-0------------------------2------0---------------------

 el conjuro de un cuento de amor ya me atrapó lo puedo sentir

        CORO:
en el coro:
guitarra 1 va sin distorsión
guitarra 2 con distorsión

     (noten que las guitarras van en sincronización)

guitarra 1
e|------------4-|---------0-|---------2-|---------2-|
b|------------4-|---------0-|---------4-|---------2-|
g|------------4-|-1-1-1-1-1-|-4-4-4-4-4-|---------3-|
D|-6--6--6--6-6-|-2-2-2-2-2-|-4-4-4-4-4-|-4-4-4-4-4-|
A|-6--6--6--6-6-|-2-2-2-2-2-|-2-2-2-2-2-|-4-4-4-4-4-|
E|-4--4--4--4-4-|-----------|-----------|-2-2-2-2-2-|

gitarra2
e|--------------|-----------|-----------|-----------|
b|--------------|-----------|-----------|-----------|
g|------------8-|-----------|---------8-|---------3-|
D|-------9------|-----6---9-|-----9-----|-4---4-----|
A|----11---11---|-7-----7---|---9---9---|---4-------|
E|-11-----------|---7-------|-7---------|-------2---|

   Y   por   las   noches    puedo  sentir  su  calor...

guitarra 1
e|------------4-|---------0-|---------2-|-------------5--|
b|------------4-|---------0-|---------4-|-------------7--|
g|------------4-|-1-1-1-1-1-|-4-4-4-4-4-|-7--7--7--7--7--|
D|-6--6--6--6-6-|-2-2-2-2-2-|-4-4-4-4-4-|-7--7--7--7--7--|
A|-6--6--6--6-6-|-2-2-2-2-2-|-2-2-2-2-2-|-5--5--5--5--5--|
E|-4--4--4--4-4-|-----------|-----------|----------------|

guitarra 2
e|--------------|-----------|-----------|----------------|
b|--------------|-----------|-----------|----------------|
g|------------8-|-----------|---------8-|-------------11-|
D|-------9------|-----6---9-|-----9-----|-12----12-------|
A|----11---11---|-7-----7---|---9---9---|----12----------|
E|-11-----------|---7-------|-7---------|----------10----|

   Su   dulce   magia        me hace perder la razón...

guitarra 1
e|------------4-|---------0-|---------2-|---------2-|
b|------------4-|---------0-|---------4-|---------2-|
g|------------4-|-1-1-1-1-1-|-4-4-4-4-4-|---------3-|
D|-6--6--6--6-6-|-2-2-2-2-2-|-4-4-4-4-4-|-4-4-4-4-4-|
A|-6--6--6--6-6-|-2-2-2-2-2-|-2-2-2-2-2-|-4-4-4-4-4-|
E|-4--4--4--4-4-|-----------|-----------|-2-2-2-2-2-|

gitarra2
e|--------------|-----------|-----------|-----------|
b|--------------|-----------|-----------|-----------|
g|------------8-|-----------|---------8-|---------3-|
D|-------9------|-----6---9-|-----9-----|-4---4-----|
A|----11---11---|-7-----7---|---9---9---|---4-------|
E|-11-----------|---7-------|-7---------|-------2---|

   Y   de   mis   sueños      creo que un día escapó...

guitarra 1
e|------------4-|---------0-|---------2-|-------------5--|
b|------------4-|---------0-|---------4-|-------------7--|
g|------------4-|-1-1-1-1-1-|-4-4-4-4-4-|-7--7--7--7--7--|
D|-6--6--6--6-6-|-2-2-2-2-2-|-4-4-4-4-4-|-7--7--7--7--7--|
A|-6--6--6--6-6-|-2-2-2-2-2-|-2-2-2-2-2-|-5--5--5--5--5--|
E|-4--4--4--4-4-|-----------|-----------|----------------|

guitarra 2
e|--------------|-----------|-----------|----------------|
b|--------------|-----------|-----------|----------------|
g|------------8-|-----------|---------8-|-------------11-|
D|-------9------|-----6---9-|-----9-----|-12----12-------|
A|----11---11---|-7-----7---|---9---9---|----12----------|
E|-11-----------|---7-------|-7---------|----------10----|

   Para        esconderse     dentro de mi corazón uhoo no


e|---------------------------------------------
b|---------------------------------------------
g|----4-4------6---6-6---------4-4-------------
D|-6--4-4-4--6-6-6-6-6---6--6--4-4-4----2---2--
A|-6--2-2-4--4---4-----4----6--2-2-4--0-2-0-2--
E|-4------2-----------------4------2--0---0----

e|--------------------------------------------
b|--------------------------------------------
g|----4-4------6---6-6---------4--------------
D|-6--4-4-4--6-6-6-6-6---6--6--4--4~----------
A|-6--2-2-4--4---4-----4----6--2--4~----------
E|-4------2-----------------4-----2~----------


e|-------------------------------------------
b|-------------------------------------------
g|---------------------4-4-4-----4-4-4-------
D|-2-2-2-----2-2-2-----4-4-4-----4-4-4-------
A|-2-2-2-----2-2-2-----2-2-2-----2-2-2-------
E|-0-0-0-----0-0-0---------------------------

 ¿cómo escapar? nada real no importa conocer...

e|-------------------------------------------
b|-------------------------------------------
g|-6-6-6-------------------------------------
D|-6-6-6-----6-6-6-----4-4-4-----4-4-4-------
A|-4-4-4-----6-6-6-----4-4-4-----4-4-4-------
E|-----------4-4-4-----2-2-2-----2-2-2-------

e|---------------------------------------------------------
b|---------------------------------------------------------
g|-----------------10-12h13b-13p12-10-13b-13p12p10-12b-10v-
D|---------------------------------------------------------

   Sólo esperaré hasta dormir...

e|-------------------------------------------
b|-------------------------------------------
g|---------------------4-4-4-----4-4-4-------
D|-2-2-2-----2-2-2-----4-4-4-----4-4-4-------
A|-2-2-2-----2-2-2-----2-2-2-----2-2-2-------
E|-0-0-0-----0-0-0---------------------------

e|---------------------------------------------------------
b|---------------------------------------------------------
g|--------------------------------------6/8-6/8--6-4-6vv---
D|---------------------------------------------------------

 estoy aquí frente al gran espejo  para convencer

e|-------------------------------------------
b|-------------------------------------------
g|-6-6-6--------------6-6-6------------------
D|-6-6-6-----6-6-6----6-6-6------6-6-6-------
A|-4-4-4-----6-6-6----4-4-4------6-6-6-------
E|-----------4-4-4---------------4-4-4-------

  A los duendes que dirán como llegar

e|-------------------------------------------------------
b|-------------------------------------------------------
g|-----------7--6-----4---------------7-7-7-7-7-7-7-7----
D|-----2---7----6-----4-----4------2--7-7-7-7-7-7-7-7----
A|---2---5------4-----2-----4------2--5-5-5-5-5-5-5-5----
E|-0------------------------2------0---------------------

A aprehender el hechizo ideal que junte los sueños con la realidad

guitarra 1
e|------------4-|---------0-|---------2-|---------2-|
b|------------4-|---------0-|---------4-|---------2-|
g|------------4-|-1-1-1-1-1-|-4-4-4-4-4-|---------3-|
D|-6--6--6--6-6-|-2-2-2-2-2-|-4-4-4-4-4-|-4-4-4-4-4-|
A|-6--6--6--6-6-|-2-2-2-2-2-|-2-2-2-2-2-|-4-4-4-4-4-|
E|-4--4--4--4-4-|-----------|-----------|-2-2-2-2-2-|

gitarra2
e|--------------|-----------|-----------|-----------|
b|--------------|-----------|-----------|-----------|
g|------------8-|-----------|---------8-|---------3-|
D|-------9------|-----6---9-|-----9-----|-4---4-----|
A|----11---11---|-7-----7---|---9---9---|---4-------|
E|-11-----------|---7-------|-7---------|-------2---|

   Y   por   las   noches    puedo  sentir  su  calor...

guitarra 1
e|------------4-|---------0-|---------2-|-------------5--|
b|------------4-|---------0-|---------4-|-------------7--|
g|------------4-|-1-1-1-1-1-|-4-4-4-4-4-|-7--7--7--7--7--|
D|-6--6--6--6-6-|-2-2-2-2-2-|-4-4-4-4-4-|-7--7--7--7--7--|
A|-6--6--6--6-6-|-2-2-2-2-2-|-2-2-2-2-2-|-5--5--5--5--5--|
E|-4--4--4--4-4-|-----------|-----------|----------------|

guitarra 2
e|--------------|-----------|-----------|----------------|
b|--------------|-----------|-----------|----------------|
g|------------8-|-----------|---------8-|-------------11-|
D|-------9------|-----6---9-|-----9-----|-12----12-------|
A|----11---11---|-7-----7---|---9---9---|----12----------|
E|-11-----------|---7-------|-7---------|----------10----|

   Su   dulce   magia        me hace perder la razón...

guitarra 1
e|------------4-|---------0-|---------2-|---------2-|
b|------------4-|---------0-|---------4-|---------2-|
g|------------4-|-1-1-1-1-1-|-4-4-4-4-4-|---------3-|
D|-6--6--6--6-6-|-2-2-2-2-2-|-4-4-4-4-4-|-4-4-4-4-4-|
A|-6--6--6--6-6-|-2-2-2-2-2-|-2-2-2-2-2-|-4-4-4-4-4-|
E|-4--4--4--4-4-|-----------|-----------|-2-2-2-2-2-|

gitarra2
e|--------------|-----------|-----------|-----------|
b|--------------|-----------|-----------|-----------|
g|------------8-|-----------|---------8-|---------3-|
D|-------9------|-----6---9-|-----9-----|-4---4-----|
A|----11---11---|-7-----7---|---9---9---|---4-------|
E|-11-----------|---7-------|-7---------|-------2---|

   Y   de   mis   sueños      creo que un día escapó...

guitarra 1
e|------------4-|---------0-|---------2-|-------------5--|
b|------------4-|---------0-|---------4-|-------------7--|
g|------------4-|-1-1-1-1-1-|-4-4-4-4-4-|-7--7--7--7--7--|
D|-6--6--6--6-6-|-2-2-2-2-2-|-4-4-4-4-4-|-7--7--7--7--7--|
A|-6--6--6--6-6-|-2-2-2-2-2-|-2-2-2-2-2-|-5--5--5--5--5--|
E|-4--4--4--4-4-|-----------|-----------|----------------|

guitarra 2
e|--------------|-----------|-----------|----------------|
b|--------------|-----------|-----------|----------------|
g|------------8-|-----------|---------8-|-------------11-|
D|-------9------|-----6---9-|-----9-----|-12----12-------|
A|----11---11---|-7-----7---|---9---9---|----12----------|
E|-11-----------|---7-------|-7---------|----------10----|

   Para        esconderse     dentro de mi corazón uhoo ooh


       solo:

e|-----------------------------------------
b|-------7-9-7-----------------------------
g|-------------9--6b8r----6-8-8-8p6---6----
D|-7/3*-----------------9-----------9------
A|-5/1*------------------------------------
E|-----------------------------------------

e|-------------------------------------------
b|-------------------------------------------
g|-------------------------------------------
D|-7p6-6/9**--6-9-8--6-9-8--6-6/11-----------
A|-------------------------------------------
E|-------------------------------------------

e|----------------------------------------------------------------------
b|-7p4---4h7p4---4h7p4---4h7p4---4h7p4----------------------------------
g|-----6-------6-------6-------6-------6p4h6p4h-------------------------
D|---------------------------------------------6p4h6p4h6----------------
A|-------------------------------------------------------7p4h7p4--------
E|---------------------------------------------------------------7-4vvv-

e|---------------------------------------------------------------------
b|----17-19-17h19b-19p17----17h19b----17h19p17h19b----17h19p17h19b-----
g|-18--------------------18--------18--------------18------------------
D|---------------------------------------------------------------------
A|---------------------------------------------------------------------
E|---------------------------------------------------------------------

e|-----------------------------------------------------------
b|-19p17-----------------------------------------------------
g|-------18p16h18v--13-11-13-11------------------------------
D|------------------------------14-12-14-12-------------11~--
A|------------------------------------------14-12-14-12-11~--
E|-----------------------------------------------------------


e|----------------------------------------------------------------
b|--------------------14-13-11-13-12-101213-10-9-7-5-8-4----------
g|-11-13-9-11-13-9-11------------------------------------6--------
D|----------------------------------------------------------------
A|----------------------------------------------------------------
E|----------------------------------------------------------------


guitarra 1
e|------------4-|---------0-|---------2-|---------2-|
b|------------4-|---------0-|---------4-|---------2-|
g|------------4-|-1-1-1-1-1-|-4-4-4-4-4-|---------3-|
D|-6--6--6--6-6-|-2-2-2-2-2-|-4-4-4-4-4-|-4-4-4-4-4-|
A|-6--6--6--6-6-|-2-2-2-2-2-|-2-2-2-2-2-|-4-4-4-4-4-|
E|-4--4--4--4-4-|-----------|-----------|-2-2-2-2-2-|

gitarra2
e|--------------|-----------|-----------|-----------|
b|--------------|-----------|-----------|-----------|
g|------------8-|-----------|---------8-|---------3-|
D|-------9------|-----6---9-|-----9-----|-4---4-----|
A|----11---11---|-7-----7---|---9---9---|---4-------|
E|-11-----------|---7-------|-7---------|-------2---|

   Y   por   las   noches    puedo  sentir  su  calor...

guitarra 1
e|------------4-|---------0-|---------2-|-------------5--|
b|------------4-|---------0-|---------4-|-------------7--|
g|------------4-|-1-1-1-1-1-|-4-4-4-4-4-|-7--7--7--7--7--|
D|-6--6--6--6-6-|-2-2-2-2-2-|-4-4-4-4-4-|-7--7--7--7--7--|
A|-6--6--6--6-6-|-2-2-2-2-2-|-2-2-2-2-2-|-5--5--5--5--5--|
E|-4--4--4--4-4-|-----------|-----------|----------------|

guitarra 2
e|--------------|-----------|-----------|----------------|
b|--------------|-----------|-----------|----------------|
g|------------8-|-----------|---------8-|-------------11-|
D|-------9------|-----6---9-|-----9-----|-12----12-------|
A|----11---11---|-7-----7---|---9---9---|----12----------|
E|-11-----------|---7-------|-7---------|----------10----|

   Su   dulce   magia        me hace perder la razón...

guitarra 1
e|------------4-|---------0-|---------2-|---------2-|
b|------------4-|---------0-|---------4-|---------2-|
g|------------4-|-1-1-1-1-1-|-4-4-4-4-4-|---------3-|
D|-6--6--6--6-6-|-2-2-2-2-2-|-4-4-4-4-4-|-4-4-4-4-4-|
A|-6--6--6--6-6-|-2-2-2-2-2-|-2-2-2-2-2-|-4-4-4-4-4-|
E|-4--4--4--4-4-|-----------|-----------|-2-2-2-2-2-|

gitarra2
e|--------------|-----------|-----------|-----------|
b|--------------|-----------|-----------|-----------|
g|------------8-|-----------|---------8-|---------3-|
D|-------9------|-----6---9-|-----9-----|-4---4-----|
A|----11---11---|-7-----7---|---9---9---|---4-------|
E|-11-----------|---7-------|-7---------|-------2---|

   Y   de   mis   sueños      creo que un día escapó...

guitarra 1
e|------------4-|---------0-|---------2-|-------------5--|
b|------------4-|---------0-|---------4-|-------------7--|
g|------------4-|-1-1-1-1-1-|-4-4-4-4-4-|-7--7--7--7--7--|
D|-6--6--6--6-6-|-2-2-2-2-2-|-4-4-4-4-4-|-7--7--7--7--7--|
A|-6--6--6--6-6-|-2-2-2-2-2-|-2-2-2-2-2-|-5--5--5--5--5--|
E|-4--4--4--4-4-|-----------|-----------|----------------|

guitarra 2
e|--------------|-----------|-----------|----------------|
b|--------------|-----------|-----------|----------------|
g|------------8-|-----------|---------8-|-------------11-|
D|-------9------|-----6---9-|-----9-----|-12----12-------|
A|----11---11---|-7-----7---|---9---9---|----12----------|
E|-11-----------|---7-------|-7---------|----------10----|

   Para        esconderse     dentro de mi corazón

(( esta parte es una verdadera obra; las dos guitarras
se escuchan increible...)

guitarra 1 sin distorsión
e|-0------2------4---------4---0------2-----4------------4--
b|-0------4------5---------4---0------4-----5------------4--
g|-1------4------6---------4---1------4-----6------------4--
D|-2------4------6---------6---2------4-----6------------6--
A|-2------2------4---------6---2------2-----4------------6--
E|---------------4---------4----------------4------------4--

guitarra 2 con distorsión
e|----------------------------------------------------------
b|-------------------------------------------7-6-4----------
g|-4-3-1--4-3-1--8-6---6-8-6br---4-3-1-4-3-1-------6-5-3----
D|-------------------8--------------------------------------
A|----------------------------------------------------------
E|----------------------------------------------------------

                                Aún estas en mis sueños

guitarra 1 sin distorsión
e|-0------2------4---------4---0------2-----4------------4--
b|-0------4------5---------4---0------4-----5------------4--
g|-1------4------6---------4---1------4-----6------------4--
D|-2------4------6---------6---2------4-----6------------6--
A|-2------2------4---------6---2------2-----4------------6--
E|---------------4---------4----------------4------------4--

   guitarra 2 con distorsión
e|----------------------------------------------------------
b|-------------------------------------------7-6-4----------
g|-4-3-1--4-3-1--8-6---6-8-6br---4-3-1-4-3-1-------6-5-3----
D|-------------------8--------------------------------------
A|----------------------------------------------------------
E|----------------------------------------------------------


AY ESTA LA ROLA ESPERO LES GUSTE MI TRANSCRIPCION......

            
            
Suggest correction
Creating personal tab
Creating personal tab
You can edit any tab online and save it as your Personal.

You can edit, replace or remove any tab part or add personal notes – all changes will be seen only by you.

Personal tabs can be accessed anytime from any device, even offline.
Learn more »
Give kudos to tab author, rate the tab!
1 2 3 4 5
comments
print report bad tab
guest
Wanna post a correction for this tab? Suggest correction