Oops, an error
Loading. Please wait.

El Guardián De La Luz tab

version 1
version 1

Whole song

Interactive

80 views 3 this week
no commentswrite comment
1 2 3 4 5
3 more votes to show rating
add to favorites
×
Save as Personal and add changes to this tab that will be seen only by you. Learn more ›
×
You can save this tab as Personal to edit and correct it or add notes. All changes will be seen only by you. Learn more »
launch autoscroll
font size
0
reset
how to read this tab
guitar tuner
edit
Autoscroll
slow
fast
+/-
esc
set tempo
stop
afinacion: medio tono abajo

como para que tengan uNa idea de lo
que se toca en el temA,
depuees se fijan cuantas veces van cada cosa
y eso,
puede que los acordes en alguno le pifieXD

----------------------------------------
----------------------------------------
----------------------------------------
----------------------------------------
----------------------------------------
-0-0-0-0-0-0-0-0-0-0-0-1-0-0-0-0-0-0----
eso se repite uNAs cuantas veces

----------------------------------------------
----------------------------------------------
----------------------------------------------
----------------------------------------------
-3-0-0-0-0-0-5-0-0-3-0-0-0-0-0-3-0-5-0-6-0-0--
----------------------------------------------

------------------------------------------
------------------------------------------
------------------------------------------
------------------------------------------
-3-0-0-0-0-0-5-0-0-3-0-0-0-0--3---5-------
------------------------------1---3-------

 eso se repite alguNAs veces, 4

Eb5
niebla, bosques,
                        Db5--Cb5--Db5
arboles murmuran sobre mi
Eb5
guerra, sangre
                           Db5--Cb5--Db5
el guardian cabalga convatir


E5             Gb5 Ab5 Bb5 Cb5 Db5
junto al fuego me  dor-mi--re
     E5      E5 Eb5 (TRASTE 8 Y 7)
y lejanas estrellas
E5           Eb5  (TRASTE 1 Y 0)
me diran asi donde ire

Cb5-Gb5-Ab5
        voy CON el alba
Cb5-Gb5-E5
        voy a luchar
E5-Cb5-Gb5                Cb5 Db5Ab5G5 (TRASTE 3-5-12-11)
        voy cabalgando por mi ca-mi-no

dios me acompaña
y las fuerzas del mal
mueren ante el fuego de mi destino


--------------------------------------------------
--------------------------------------------------
--------------------------------------------------
--------------------------------------------------
-3-0-0-0-0-0-5-0-0-3-0-0-0-0-0-3-0-5-0-6-0-0------
--------------------------------------------------

--------------------------------------------------
--------------------------------------------------
--------------------------------------------------
--------------------------------------------------
-3-0-0-0-0-0-5-0-0-3-0-0-0-0--3---5---------------
------------------------------1---3---------------


SOBRE, BRUJOS
QUE BEBEN LA SANGRE DE GENTE ESCUCHE
VOY A IR DONDE
EL MAL ESPERA PARA COMBATIR


E5             Gb5 Ab5 Bb5 Cb5 Db5
junto al fuego me dor--mi---re
     E5      E5 Eb5 (TRASTE 8 Y 7)
y lejanas estrellas
E5           Eb5  (TRASTE 1 Y 0)
me diran asi donde ire

Cb5-Gb5-Ab5
        voy CON el alba
Cb5-Gb5-E5
        voy a luchar
E5-Cb5-Gb5                Cb5 Db5Ab5G5 (TRASTE 3-5-12-11)
        voy cabalgando por mi ca-mi-no

dios me acompaña
y las fuerzas del mal
mueren ante el fuego de mi destino


 esto en realidad va mas lento, osea
que suena mas veces la nota de la cuerda suelta
y va haciendo sonar esos trastes

-----------------------------------------------
-----------------------------------------------
-----------------------------------------------
-----------------------------------------------
-12-0-0-10-0-0-8-0-0-7-0-0-5-0-0-7-0-0-3-0-0-2-
-----------------------------------------------

-----------------------------------------------
-----------------------------------------------
-----------------------------------------------
-----------------------------------------------
-----------------------------------------------
-12-0-0-10-0-0-8-0-0-7-0-0-5-0-0-7-0-0-3-0-0-1-


solo!!!!!!!!

-8-12-10-12-8-12-10-12-7-10-8-10-7-10-8-10-
-------------------------------------------
-------------------------------------------
-------------------------------------------
-------------------------------------------
-------------------------------------------

-5-8-7-8-5-8-7-8-4-7-5-7-7-10-8-10---
-------------------------------------
-------------------------------------
-------------------------------------
-------------------------------------
-------------------------------------


-8-12-10-12-8-12-10-12-7-10-8-10-7-10-8-10-
-------------------------------------------
-------------------------------------------
-------------------------------------------
-------------------------------------------
-------------------------------------------

-5-8-7-5-4-7-5-4-5ss----/17ss---
--------------------------------
--------------------------------
--------------------------------
--------------------------------
--------------------------------

-13-17-15-17-13-17-15-17-12-15-13-15-12-15-13-15-
-------------------------------------------------
-------------------------------------------------
-------------------------------------------------
-------------------------------------------------
-------------------------------------------------

10-13-12-13-10-13-12-13-9-12-10-12-12-15-13-15--
------------------------------------------------
------------------------------------------------
------------------------------------------------
------------------------------------------------
------------------------------------------------

-13-17-15-17-13-17-15-17-12-15-13-15-12-15-13-15-
-------------------------------------------------
-------------------------------------------------
-------------------------------------------------
-------------------------------------------------
-------------------------------------------------


-10-13-12-10-9-12-10-9-10ss----
-------------------------------
-------------------------------
-------------------------------
-------------------------------
-------------------------------


-10-12-13-12-10-12ss---14-16-17-16-14-16ss-
-------------------------------------------
-------------------------------------------
-------------------------------------------
-------------------------------------------
-------------------------------------------

-16-17-19-17-16-17ss--17-19-20-19-21b--19--
-------------------------------------------
-------------------------------------------
-------------------------------------------
-------------------------------------------
-------------------------------------------

-20-17-16-20-17-16-19-17-16----------
----------------------------18-17-15-
-------------------------------------
-------------------------------------
-------------------------------------
-------------------------------------

------------------------------------------
------------------------------------------
-17-16-14-16-14-13------------------------
-------------------15-14-12---------------
----------------------------15-14-12------
-------------------------------------12ss-


-13-12-11-12-17ss---20-19-17-
-----------------------------
-----------------------------
-----------------------------
-----------------------------
-----------------------------


-17-15-17-15-17-15-17-15--15-13-15-13-15-13-
--------------------------------------------
--------------------------------------------
--------------------------------------------
--------------------------------------------

-15p12----12-13p12-15p12----12-13p12-15p12-
-------13----------------13----------------
-------------------------------------------
-------------------------------------------
-------------------------------------------
-------------------------------------------

-19p15----15-17p15-19p15----15-17p15-19p15--
-------15----------------15-----------------
--------------------------------------------
--------------------------------------------
--------------------------------------------
--------------------------------------------

-20p17----17-19p17-20p17----17-19p17-20p17-
-------17----------------17----------------
-------------------------------------------
-------------------------------------------
-------------------------------------------
-------------------------------------------

-15p12----12-14p12-15p12----12-14p12-15p12-
-------12----------------12----------------
-------------------------------------------
-------------------------------------------
-------------------------------------------
-------------------------------------------

-17p13----13-15p13-17p13----13-15p13-17p13-
-------13----------------13----------------
-------------------------------------------
-------------------------------------------
-------------------------------------------
-------------------------------------------

-15p12----12-13p12-15p12----12-13p12-15p12--
-------13----------------13-----------------
--------------------------------------------
--------------------------------------------
--------------------------------------------
--------------------------------------------

-17p13----13-15p13-17p13----13-15p13-17p13-
-------13----------------13----------------
-------------------------------------------
-------------------------------------------
-------------------------------------------
-------------------------------------------

-19p15----15-17p15-19p15----15-17p15-19p15-
-------15----------------15----------------
-------------------------------------------
-------------------------------------------
-------------------------------------------
-------------------------------------------

-15p12----12-13p12-15p12----12-13p12-15p12-
-------13----------------13----------------
-------------------------------------------
-------------------------------------------
-------------------------------------------
-------------------------------------------

-19p15----15-17p15-19p15--19p16----16-17p16-19p16-
-------15-----------------------17----------------
--------------------------------------------------
--------------------------------------------------
--------------------------------------------------
--------------------------------------------------

-20p17----17-19p17-20p17----17-19p17-20p17-
-------17----------------17----------------
-------------------------------------------
-------------------------------------------
-------------------------------------------
-------------------------------------------

-15p12----12-14p12-15p12----12-14p12-15p12-
-------12----------------12----------------
-------------------------------------------
-------------------------------------------
-------------------------------------------
-------------------------------------------

-17p13----13-15p13-17p13----13-15p13-17p13-
-------13----------------13----------------
-------------------------------------------
-------------------------------------------
-------------------------------------------
-------------------------------------------

-15p12----12-13p12-15p12----12-13p12-15p12-
-------13----------------13----------------
-------------------------------------------
-------------------------------------------
-------------------------------------------
-------------------------------------------

-17p13----13-15p13-17p13----13-15p13-17p13-
-------13----------------13----------------
-------------------------------------------
-------------------------------------------
-------------------------------------------
-------------------------------------------

-19p15----15-17p15-19p15----15-17p15-19p15-
-------15----------------15----------------
-------------------------------------------
-------------------------------------------
-------------------------------------------
-------------------------------------------

-20p17----17-19p17-20p17-19p16----16-17p16-
-------17----------------------17----------
-------------------------------------------
-------------------------------------------
-------------------------------------------
-------------------------------------------

19p16-17p13----13-15p13-17p13-15p12----12-13p12-15p12-
------------13----------------------13----------------
------------------------------------------------------
------------------------------------------------------
------------------------------------------------------
------------------------------------------------------

-17p13----13-15p13-17p13-15p12----12-13p12-15p12-
-------13----------------------13----------------
-------------------------------------------------
-------------------------------------------------
-------------------------------------------------
-------------------------------------------------

19p15---15-17p15-19p15----15-17p15-19p15-
------15---------------15----------------
-----------------------------------------
-----------------------------------------
-----------------------------------------
-----------------------------------------

-20p17----17-19p17-20p17-19p16----16-17p16-19p16-
-------17----------------------17----------------
-------------------------------------------------
-------------------------------------------------
-------------------------------------------------
-------------------------------------------------

-17p13----13-15p13-17p13-15p12----12-13p12-15p12--
-------13----------------------13-----------------
--------------------------------------------------
--------------------------------------------------
--------------------------------------------------
--------------------------------------------------

-13p10----10-12p10-13p10-12p8----8-10p8-12p8--
-------10---------------------10--------------
----------------------------------------------
----------------------------------------------
----------------------------------------------
----------------------------------------------

13p10----10-12p10-13p10----10-12p10-13p10--
------13----------------10-----------------
-------------------------------------------
-------------------------------------------
-------------------------------------------
-------------------------------------------

-12ss-13-12-13-12-13-12-13--10-12-13-12-10-
-------------------------------------------
-------------------------------------------
-------------------------------------------
-------------------------------------------
-------------------------------------------

------------------------------------------------
13-12-10-12-10-9---------12-10-9----------------
-----------------12-10-9---------12-10-9-10-9-7-
------------------------------------------------
------------------------------------------------
------------------------------------------------

------------------------------------------
------------------------------------------
-------10-9-7-----------------------------
-10-9-7--------10-9-7-9-7-6---------------
----------------------------8-7-5---------
----------------------------------8-7-5ss-

 esto tambien
irian mas ceros entre nota y notaXD
------------------------------------------
-------------------------------------------
------------------------------------------
-12-0-10-0-8-0-7-0-----------------------
-------------------12-0-10-0-8-0-7---------
--------------------------------------------

------------------------------------------
-------------------------------------------
------------------------------------------
-12-0-10-0-8-0-7-0-----------------------
-----------------------------------------
-------------------12-0-10-0-8-0-7-------

espero que les sirva,
lo otro saquenlo ustedesXD
cualquier cosa a mi mail
genaronm_09@
Suggest correction
Creating personal tab
Creating personal tab
You can edit any tab online and save it as your Personal.

You can edit, replace or remove any tab part or add personal notes – all changes will be seen only by you.

Personal tabs can be accessed anytime from any device, even offline.
Learn more »
Give kudos to tab author, rate the tab!
1 2 3 4 5
comments
print report bad tab
guest
Wanna post a correction for this tab? Suggest correction