Oops, an error
Loading. Please wait.

El Sueño De La Gitana tab

version 3
version 3

Whole song

Interactive

190 views 1 this week
no commentswrite comment
1 2 3 4 5
3 more votes to show rating
add to favorites
×
Save as Personal and add changes to this tab that will be seen only by you. Learn more ›
×
You can save this tab as Personal to edit and correct it or add notes. All changes will be seen only by you. Learn more »
launch autoscroll
font size
0
reset
how to read this tab
guitar tuner
backing track
0:00
0:00
edit
Autoscroll
slow
fast
+/-
esc
set tempo
stop
Bueno, esta es una rola que me encanta 
esta en G.

Intro.
    G
e|--------------------------------------------------
B|--------------------------------------------------
G|--15p12----17p12----15p12--14p12----15p12--------- *2
D|--------12-------12-------12-----12-------12-(12)-
A|--------------------------------------------------
E|--------------------------------------------------
    D#
e|--------------------------------------------------
B|--------------------------------------------------
G|--12p8---10p8---12p8---8p8---12p8----------------- *2
D|-------8------8------8-----8------8-8-(8)---------
A|--------------------------------------------------
E|--------------------------------------------------
    C
e|--------------------------------------------------
B|--------------------------------------------------
G|--8p5---7p5---8p5---7p5---8vvv-------------------- *2
D|------5-----5-----5-----5------5-(5)--------------
A|--------------------------------------------------
E|--------------------------------------------------
    D
e|--------------------------------------------------
B|--------------------------------------------------
G|--11p7---9p7--11p7---9p7---11p7------------------- *2
D|-------7-----7-----7-----7------7--7-(7)----------
A|--------------------------------------------------
E|--------------------------------------------------
    D
e|--------------------------------------------------
B|-------------------------------------------------- 
G|--14p11----15p11----14p11----15p11----14vvv------- *2
D|--------12-------12-------12-------12-------------
A|--------------------------------------------------
E|--------------------------------------------------
    D     C  A#  A     
e|--9b-8--------------------------------------------
B|--------11--10vvv---------------------------------
esto va solamente cuando mempieza a cantar...

   G                C           D#       A#         F
A. danza gitana tu fuerza sera fuente de mi inspiracion
D                                  G     D# D
En tu mirada en tu boca de fuego está el amor
G                     C      
saca la herrumbre de todo mi ser 
D#      A#       F
devuélveme la pasión
D                                     G  D# D
dama tu sangre podra hacer latir a mi corazón

B.
F              A#       C C# D
Tus labios me pueden sanar heridas del tiempo y quizas
G            D#      G     D#  D
un dia me enseñes toda la verdad
gitana tu puedes leer mis manos y así conocer
         D#        G           D#       C  D
que tu amor y mi amor juntos quieren estar.

ANTES DE EMPEZAR EL SOLO SON ESTOS ACORDES:
D-C-A#-A-G

AQUI SE REPITE EL INTRO(TODO)
DESPUES VA LA SEGUNDA ESTROFA
CON LOS MISMOS ACORDES
Y VIENE EL SOLO

SOLO
e|--------------------------------------------------
B|--------------------------------------------------
G|---5bvv-8-7h8p5-5-5b-8-7h8p5-5b-5-3h5p3-2-3-2-0---
D|--------------------------------------------------
A|-5/-----------------------------------------------
E|--------------------------------------------------

e|-----------------------------------------------------
B|-----------------------------------------------6-----
G|-5h7-7-7-7-5-7-7-5-7-7-7-7-5-7-5-8-7h8p5-5-5b-8-8-5b-5----
D|----------------------------------------------------8-7-8-7-5v
7|-----------------------------------------------------
E|-----------------------------------------------------
  pm........................
e|--------------------------------------------------
B|-------------------------------8-6---6------------
G|------------------7---5-7-5-7-8---8-7--8-7-5-7vvv-
D|-7-5-7-5-7-8-5-7-8-7-8---8------------------------
A|------8-------------------------------------------
E|--------------------------------------------------

e|-------------------------8-----8-10-8-----8-------
B|-7-8-10-7-8-10-11-8-10-11-10-11------11-10-11-10-8
G|--------------------------------------------------10-8-7-
D|--------------------------------------------------
A|--------------------------------------------------
E|--------------------------------------------------

e|-(11p8-13p8)*2-8h11p8--(6p3-5p3-)*2---------------
B|------8--------------8-----3---3------------------
G|--------------------------------------------------


e|-9p6--9h12p9---12h15p12---18h15p12--------14b-12-14v-
B|----8-------11---------14---------17-14-17--------
G|--------------------------------------------------

II PARTE.
PARTE RAPIDA
e|-(8-6-5)*8--(10-8-6)*8--(5-3-2)*7--(6-5-3-----)--14b
B|-----------------------------------(-----6-4-3)*2-
G|--------------------------------------------------


e|(17b-17-15-13s15)*2-17b-17-15-12-15-17-15h17p15-14-11-10
B|--------------------------------------------------
G|--------------------------------------------------


e|-8-10-11-8v-11-10-8-----10-8--------8-------------
B|--------------------11v------11-10v---11-10-11v---
G|--------------------------------------------------


e|-8-10-11/8-17b-13-11-10-14b-8-10-11-8-10-11-------
B|--------------------------------------------------
G|--------------------------------------------------


e|-15-12---15h18p15----18h21p18---15h18p15--14b-14b-14
B|------14----------17---------20---------17--------
G|--------------------------------------------------
D|----------------------------------------------------5b
A|--------------------------------------------------
E|--------------------------------------------------

ESPERO QUE LES HAYA GUSTADO PUES LO SAQUE CON EL
FIN DE COMPARTIRLES.
BUENO ANTES QUE ME OLVIDE ESTA ROLA LA QUIERO DEDICAR AL 
GRAN AMOR DE MI VIDA A TI WENDY V.(NEGRITA BELLA) NO TE OLVIDES 
QUE TE AMO...Y POR TI RESPIRO.
CUALQUIER COMENTARIO, SUGERENCIA O RECLAMO
ESCRIBAN AL secodechivo@
PARA CAMBIAR TABS...
Suggest correction
Creating personal tab
Creating personal tab
You can edit any tab online and save it as your Personal.

You can edit, replace or remove any tab part or add personal notes – all changes will be seen only by you.

Personal tabs can be accessed anytime from any device, even offline.
Learn more »
Give kudos to tab author, rate the tab!
1 2 3 4 5
comments
print report bad tab
guest
Wanna post a correction for this tab? Suggest correction