Oops, an error
Loading. Please wait.

Guitarra Española tab

version 1
version 1

Whole song

Interactive

329 views 1 this week
no commentswrite comment
1 2 3 4 5
3 more votes to show rating
add to favorites
×
Save as Personal and add changes to this tab that will be seen only by you. Learn more ›
×
You can save this tab as Personal to edit and correct it or add notes. All changes will be seen only by you. Learn more »
launch autoscroll
font size
0
reset
how to read this tab
guitar tuner
edit
Autoscroll
slow
fast
+/-
esc
set tempo
stop
Intro con distorcion:
e|---------------------5-8-10-12-15-12-17vibracion-
b|-----------------5-8-----------------------------
g|-----------5-7-8---------------------------------
D|--------5-7--------------------------------------
A|-----5-7-----------------------------------------
E|--5-8--------------------------------------------

Base con distorcion:

Riff A
e|-------------------------------
b|-------------------------------
g|-------------------------------
D|-------------------------------
A|-5-55-3-5-55---5-55-3-5-55----- x4

Riff B
e|---------------------------------------------------------------
b|---------------------------------------------------------------
g|---------------------------------------------------------------
D|---------------------------------------------------------------
A|---------------------------------------------------------------
E|--------2-------------2---------------2-------------2--------0-
E|-1-3-33---3-33-1-3-33---3-33--1-3-33----3-33-1-3-33---3-33-1---


Riff A
Voy a invocar todo el poder
de mi guitarra española
Riff B
y regresar tiempos que no
puede mi alma olvidar
Riff A
Primer amor, arma de honor
que me entregaron los magos
Riff B
bella mujer, ella me dió
todo lo que le pedí
Riff A
Siempre serás quién contará
viejos secretos del bosque
Riff B
hada juglar, hechizarás
a los que escuchen tu voz
Riff A
Vuelve a soñar, encántame
sabia viajera del mundo
Riff B
te abrazaré para poder
tu viejo hechizo escuchar
Riff A
Voy a invocar todo el poder
de mi guitarra española
Riff B
y regresar tiempos que no
puede mi alma olvidar
Riff A
Siempre serás quién contará
viejos secretos del bosque
Riff B
hada juglar, hechizarás
a los que escuchen tu voz.
Suggest correction
Creating personal tab
Creating personal tab
You can edit any tab online and save it as your Personal.

You can edit, replace or remove any tab part or add personal notes – all changes will be seen only by you.

Personal tabs can be accessed anytime from any device, even offline.
Learn more »
Give kudos to tab author, rate the tab!
1 2 3 4 5
comments
print report bad tab
guest
Wanna post a correction for this tab? Suggest correction