Oops, an error
Loading. Please wait.

Herederos De La Fé tab

19 views 1 this week
no commentswrite comment
1 2 3 4 5
3 more votes to show rating
add to favorites
×
Save as Personal and add changes to this tab that will be seen only by you. Learn more ›
×
You can save this tab as Personal to edit and correct it or add notes. All changes will be seen only by you. Learn more »
launch autoscroll
font size
0
reset
how to read this tab
guitar tuner
edit
Autoscroll
slow
fast
+/-
esc
set tempo
stop
Intro:
e|------------------------------------|----------------------------------|
B|------------------------------------|----------------------------------|
G|------------------------------------|----------------------------------|
D|-\\2-2--5-5/7-7--2-2--8\7--5/7--5-4-|-2-2--5-5/7-7--2-2--8\7--5/7--(5)-|
A|-\\2-2--5-5/7-7--2-2--8\7--5/7--5-4-|-2-2--5-5/7-7--2-2--8\7--5/7--(5)-|
E|-\\0-0--3-3/5-5--0-0--6\5--3/5--3-2-|-0-0--3-3/5-5--0-0--6\5--3/5--(3)-|

e|------------------------------------|-----------------------------|
B|------------------------------------|-----------------------------|
G|------------------------------------|-----------------------------|
D|---2-2--5-5/7-7--2-2--8\7--5/7--5-4-|-2-2--5-5/7-7--2-2--8\7--(5)-|
A|---2-2--5-5/7-7--2-2--8\7--5/7--5-4-|-2-2--5-5/7-7--2-2--8\7--(5)-|
E|---0-0--3-3/5-5--0-0--6\5--3/5--3-2-|-0-0--3-3/5-5--0-0--6\5--(3)-|

==========================================================================

Riff1
e|----------------|
B|----------------|
G|----------------|
D|-2-2--5--5/7--7-|
A|-2-2--5--5/7--7-|
E|-0-0--3--3/5--5-|

Riff1 x9
Emprendiendo el viaje
los caminos se abren.

e|------------------------|---------------------|
B|------------------------|---------------------|
G|--------------------7-9-|---------------------|
D|-8-8--7-5--2-2------7-9-|-8-8--7-5--2-2-----3-|
A|-8-8--7-5--2-2------5-7-|-8-8--7-5--2-2-----3-|
E|-6-6--5-3--0-0-xx-------|-6-6--5-3--0-0-xxx-1-|
  Desde  las   cenizas     puedes renacer...

e|------------------------|
B|------------------------|
G|--------------------9-7-|
D|-8-8--7-5--2-2------9-7-|
A|-8-8--7-5--2-2------7-5-|
E|-6-6--5-3--0-0-xx-------|
  buscando un destino real,

C5            B5
que te pueda dar
          C5
ser por siempre
     D5   G5 F5 E5
heredero de la fe.

e|----------------------------------|----------------------------------|
B|----------------------------------|----------------------------------|
G|----------------------------------|----------------------------------|
D|-2-2--5-5/7-7--2-2--8\7--5/7--5-4-|-2-2--5-5/7-7--2-2--8\7--5/7--(5)-|
A|-2-2--5-5/7-7--2-2--8\7--5/7--5-4-|-2-2--5-5/7-7--2-2--8\7--5/7--(5)-|
E|-0-0--3-3/5-5--0-0--6\5--3/5--3-2-|-0-0--3-3/5-5--0-0--6\5--3/5--(3)-|

Escucha el mensaje,
el hombre que sabe
no temer al destino,
resplandecerá.

Buscando lo bueno,
C5           B5
tendrá su lugar
        C5
entre grandes
     D5       E5  F5
herederos... que están

Riff2
e|-------------|
B|-------------|
G|-------5-4-2-|
D|-4-----5-4-2-|
A|-4-----3-2-0-|
E|-2-22--------|
Pm   ..
                      (Pm..)
Riff2 x4              F#-F#-A5-B5
emprendiendo el viaje.
Riff2 x3              A5-Bb5-B5
Los caminos se abren,
E5    A5-Bb5-B5     C5-B5-A5-(Riff2) x2
guerrero      incansable
D5      E5
de la libertad.

Inter:
                                             x2
e|-----------0---0---------0-------------------|-----------0--0-----------------------|
B|------------0---0---------0------------------|------------0--0----------------------|
G|-------------3-------------2-----------------|-------------3------------------------|
D|-2-------4-------------3---------------3-2-0-|-2-------4--------3---------------7-9-|
A|-2--5-7--4---------5-4-3------2-2-2-2--3-2-0-|-2--5-7--4--------3--2-2-2-2-2-2--5-7-|
E|-0--3-5--2---------3-2-1------0-0-0-0--1-0---|-0--3-5--2--------1--0-0-0-0-0-0------|
      . .            . .        . . . .

------
Solo - Acompañamiento: Riff3 x9 | (A5-B5-C5 B5)x3 |A5-B5-C5 D5 |G5-F5-E5|
------

Riff3
e|----------------------------------|
B|----------------------------------|
G|----------------------------------|
D|-2-2--5-5/7-7--2-2--8\7--5/7--5-4-|
A|-2-2--5-5/7-7--2-2--8\7--5/7--5-4-|
E|-0-0--3-3/5-5--0-0--6\5--3/5--3-2-|


Subiendo ese monte,
el temor se rompe.

Después de tanto buscar
encontraste la verdad,

ser por siempre
heredero de la fe.

Herederos de la fe... es su nombre.
Herederos de la fe.

            
            
Suggest correction
Creating personal tab
Creating personal tab
You can edit any tab online and save it as your Personal.

You can edit, replace or remove any tab part or add personal notes – all changes will be seen only by you.

Personal tabs can be accessed anytime from any device, even offline.
Learn more »
Give kudos to tab author, rate the tab!
1 2 3 4 5
comments
print report bad tab
guest
Wanna post a correction for this tab? Suggest correction