Oops, an error
Loading. Please wait.

Jerusalén tab

version 2
version 2

Whole song

52 views 1 this week
no commentswrite comment
1 2 3 4 5
3 more votes to show rating
add to favorites
×
Save as Personal and add changes to this tab that will be seen only by you. Learn more ›
×
You can save this tab as Personal to edit and correct it or add notes. All changes will be seen only by you. Learn more »
launch autoscroll
font size
0
reset
how to read this tab
guitar tuner
edit
Autoscroll
slow
fast
+/-
esc
set tempo
stop
Afinacion E(Mi): E,a,d,g,b,e

Intro:

Riff 1
e:----------------------------------------|
b:----------------------------------------|
g:----------------------------------------|
d:----------------------------------------| > 2 veces.
a:----2/3--5/6--1--3-3-3-3-3-3-3-3-3-3-3--| 
e:----------------------------------------|

Riff 2
e:----------------------------------------|
b:----------------------------------------|
g:----------------------------------------|
d:----------------------------------------| > 4 veces.
a:----1-1-3-3/4--3-3-3-3-3-3-3-3-3-3/4-3--| 
e:----------------------------------------|


C            C#                    C   G
Desde el Jordán, Dios le habló al hombre:
C       C#          C
No matarás, oye Israel.
C           C#             C  G
Tierra sin paz donde el creyente
C        C#           C
en confusión reclama poder.

D#   C           C#  C
¡Oh... arden los lirios

          Riff 2 x 1
D#  C     C#  C
de... Jerusalén!

Jerusalén ciudad marcada,
la espada cruel no se apartará.
De norte a sur truenan sus montes,
mientras su luz se hace oscuridad.

¡Oh... arden los lirios
de Jerusalén!

G (Palm mute)
Entre las tinieblas planean la guerra
pueblos sin Mesías e hijos del Corán.
Franja, autonomía, cuestión palestina
mientras se debaten que sacrificar.

Solo 1:
                                     C# C  C#
e:----------------------------------------------|
b:----------------------------------------------|
g:----------------------------------------------|
d:-----------------------------------11-10-11---|
a:----------------7-8-10-----7-8-10--11-10-11---|
e:--1-/3-/4-/6-/8--------9-8---------9--8--9----|

C (Palm mute) *

Solo 2...

Repite Riff 1, 2 veces. y luego estos dos acordes rapido: Bb C


Siglos sin paz en Medio Oriente,
combaten hoy política y fe.
No importará la vida o la muerte.
                        * > armonico traste 12, 1ra cuerda \\\ con palanca de tremolo
Lo que verás no es realidad.

¡Oh... arden los lirios
de Jerusalén!

¡Oh... ciudad marcada!
           Riff 2
¡Oh... Jerusalén!

(con Riff 2)
¡Jerusalén!
¡Jerusalén!

Termina con C en Palm mute haciendo fade out....


ACORDES:

    C   C#  G   D#  Bb
e:|-x-|-x-|-x-|-x-|-x-|
b:|-x-|-x-|-x-|-x-|-x-|
g:|-5-|-6-|-x-|-8-|-3-|
d:|-5-|-6-|-5-|-8-|-3-|
a:|-3-|-4-|-5-|-6-|-1-|
e:|-x-|-x-|-3-|-x-|-x-|


************************************************
 Cualquier duda o correccion: jmdzoom@
************************************************

            
            
Suggest correction
Creating personal tab
Creating personal tab
You can edit any tab online and save it as your Personal.

You can edit, replace or remove any tab part or add personal notes – all changes will be seen only by you.

Personal tabs can be accessed anytime from any device, even offline.
Learn more »
Give kudos to tab author, rate the tab!
1 2 3 4 5
comments
print report bad tab
guest
Wanna post a correction for this tab? Suggest correction