Oops, an error
Loading. Please wait.

La Canción De Sol chords

version 1
version 1

Whole song

40 views 1 this week
no commentswrite comment
1 2 3 4 5
3 more votes to show rating
add to favorites
×
Save as Personal and add changes to this tab that will be seen only by you. Learn more ›
×
You can save this tab as Personal to edit and correct it or add notes. All changes will be seen only by you. Learn more »
launch autoscroll
font size
0
reset
transpose
0
reset
display chords
guitar tuner
edit
Autoscroll
slow
fast
+/-
esc
set tempo
stop
Strumming
There is no strumming pattern for this song yet. and get +5 IQ
HOLA ESTE TEMA ME RE GUSTA Y ESPERO QUE
LES GUSTE A TODOS USTEDES

E         B           C#m
Recuerdo hoy mirando atrás
          G#m            A                   E
Aquellas cosas  que se llevan dentro del corazón

No sé muy bien que sucedió
En estos tiempos sólo importa ser un buen jugador.

     F#m    A            E
      El valor de mis amigos,
     F#m    A           E
      El amor que no se va
     F#m      A           E
      Hoy me ayudan a sobrevivir
                 F#m         A      B
      Aquellas cosas en que no creía.

             E   B             C#m  G#m
Hay un lugar, hay un  lu - gar
                    A        E        B
Que lo encuentras muy dentro de ti
Hay un lugar, hay un lugar                 E
Desde donde podemos sentir, sólo sentir

E         B              C#m
Gracias a vos hoy puedo ver
      F#m             A
Que lo mejor en este juego
                E
Es ser un perdedor

Qué ganaré si hay que aplastar
El sueño de alguien
Porque sólo me interese triunfar.
 F#m      A           E
Cuando beses a tus hijos
 F#m    A           E
Quizá lo comprenderás
 F#m     A               E
Que la vida tiene mucho más
            F#m         A             B
Que los millones, la ambición y el maltrato

Hay un lugar...


SOLO: (parecido)
      sobre   - F#m / A / E    (X3)    F#m / A /  B  -
e|-------------------------------------------------------------
B|-------------------------------------------------------------
G|-------------------------------13(14)-13------13(14)-13------
D|-9(11)-12(14)-- 9(11)-12(14)-------------14-------------14---
A|-------------------------------------------------------------
E|-------------------------------------------------------------


e|-------------------------------------------------------
B|-------------------------------------------------------
G|--11-9---------11-9--------11-9-----14---16(18)16-14---
D|-------11-11--------11-11--------------14--------------
A|-------------------------------------------------------
E|-------------------------------------------------------


e|----------------------------------------------------------------------
B|----------------------------------------------------------------14----
G|----------------------16(18)-16(18)-16-14-13-----------------16---16--
D|-------14-16-14-----------------------------14------14---16(18)-------
A|-14-16----------16-14--------------------------14-16--16--------------
E|----------------------------------------------------------------------


e|-----------------------------------------------------------------------
B|-----------------------------------------------------------------------
G|------16-------------------9-11------9-11------9-11------9-11------9-11
D|-16(18)--16(18)16-14--10(11)----10(11)----10(11)----10(11)----10(11)---
A|-----------------------------------------------------------------------
E|-----------------------------------------------------------------------


e|--------------------------------------------------------------------
B|-------------------------------------------9-10-9-------------------
G|-------------------------------------------------9------------------
D|-9(11)9-7/6---------7-9(11)9-7---7-9(11)9----------9-11-9-----------
A|-----------9----7-9------------9--------------------------11-12-11--
E|-------------7-9----------------------------------------------------


e|---------------------------------------------------------------
B|----------------------------------------------9----------------
G|---------------11--9-------11--9-------11--13--------9----9-11-
D|---------------11--9-9t-9t-11--9-9t-9t-11--11----9-11--11------
A|-7-9-7---------------------------------------------------------
E|-------7-9-7---------------------------------------------------


e|----------------------------------------------------------
B|-10-12-12(14)12--10-12-12(14)-14(16)-15(17)-17(19)-19(21)-
G|----------------------------------------------------------
D|----------------------------------------------------------
A|----------------------------------------------------------
E|----------------------------------------------------------

Picking
e|-21-19-17-19-21-19-17-19-21-19-17-19-19(21)19-19(21)p-----
B|----------------------------------------------------------
G|----------------------------------------------------------
D|----------------------------------------------------------
A|----------------------------------------------------------
E|----------------------------------------------------------


C#m         A      E              B
       Prisioneros sin saber,
       Qué es perder o ganar
C#m        A                       E
       La locura que nos arrastra al fin
                  B
       En avalanchas de ambición  que asfixian la razón.


Hay un lugar...

            
            
Suggest correction
Creating personal tab
Creating personal tab
You can edit any tab online and save it as your Personal.

You can edit, replace or remove any tab part or add personal notes – all changes will be seen only by you.

Personal tabs can be accessed anytime from any device, even offline.
Learn more »
Give kudos to tab author, rate the tab!
1 2 3 4 5
comments
print report bad tab
guest
Wanna post a correction for this tab? Suggest correction