Oops, an error
Loading. Please wait.

Rey De La Revolución tab

25 views 1 this week
no commentswrite comment
1 2 3 4 5
3 more votes to show rating
add to favorites
×
Save as Personal and add changes to this tab that will be seen only by you. Learn more ›
×
You can save this tab as Personal to edit and correct it or add notes. All changes will be seen only by you. Learn more »
launch autoscroll
font size
0
reset
how to read this tab
guitar tuner
edit
Autoscroll
slow
fast
+/-
esc
set tempo
stop
Transcripcion: Gustavo Vidal

Riff 1  (Em D C Em)
Eb|----------------------|----|----------
Bb|----------------------|----|----------
Gb|--9-9--7-7--5-5-------|----|----------
Db|--9-9--7-7--5-5---2-2-|(x2)|-0-2-0-2--
Bb|------------------2-2-|----|-0-2-0-2--
Eb|----------------------|----|----------

Eb|------------------------------------------------------
Bb|------------------------------------------------------
Gb|--9-9--7-7--5-5--------7-9-7-9---9-9--7-7--5-5--------
Db|--9-9--7-7--5-5---2-2--7-9-7-9---9-9--7-7--5-5---2-2--
Bb|------------------2-2----------------------------2-2--
Eb|------------------------------------------------------

(sobre Riff 1)
El es mal visto por mi ciudad
lleva las marcas de un castigo policial

Va por los barrios para encontrar
las ilusiones que perdieron los demas

----------------------------------------------------------------------
Variaciones de C    Variaciones de Em
Eb|-------------    Eb|-------------
Bb|-5--3--5--3--    Bb|-8--7--8--7--    D C            Em
Gb|-5--5--5--5--    Gb|-9--9--9--9--      No es imposible...
Db|-5--5--5--5--    Db|-9--9--9--9--    C             D    B G A F Em
Ab|-------------    Ab|-------------      Que llegue aqui...
Eb|-------------    Eb|-------------                                     
----------------------------------------------------------------------

Riff 2                                               C  D        F E
Eb|-----------------|----------------|--------------------------------
Bb|-----------------|----------------|--------------------------------
Gb|---9-7---3-2-0---|--9-7---0-2-----|--9-7---3-2-0--5--7-------------
Db|-2-9-7-2-3-2-0-2-|--9-7-2-0-2-3-2-|--9-7-2-3-2-0--5--7--------3-2--
Ab|-2-----2-------2-|------2-----3-2-|------2--------3--5--------3-2--
Eb|-----------------|----------------|---------------------2-3-5------

Eb|-----------------|----------------|---------------------
Bb|-----------------|----------------|---------------------
Gb|---9-7---3-2-0---|--9-7---0-2-----|--9-7---3-2-0--5--7--
Db|-2-9-7-2-3-2-0-2-|--9-7-2-0-2-3-2-|--9-7-2-3-2-0--5--7--
Ab|-2-----2-------2-|------2-----3-2-|------2--------3--5--
Eb|-----------------|----------------|---------------------

(sobre Riff 2)
Es como un sabio, sin comprension rey de la calle inclinandose ante vos
loco suicida te enseñara que la fortuna solo esta en la libertad

(Sobre Riff 1)
Hay muchas formas de reprimir
Hoy son las mentes mas dañinas que el fusil

Cuidate mucho me aconsejo
los inmortales nunca buscan redencion

D C             Em
   Y es como un grito...
C              D    B G A F Em
  dentro de mi...

Riff 3                                               C  D        F E
Eb|-----------------|----------------|--------------------------------
Bb|-----------------|----------------|--------------------------------
Gb|---9-7---3-2-0---|--9-7---0-2-----|--9-7---3-2-0--5--7-------------
Db|-2-9-7-2-3-2-0-2-|--9-7-2-0-2-3-2-|--9-7-2-3-2-0--5--7--------3-2--
Ab|-2-----2-------2-|------2-----3-2-|------2--------3--5--------3-2--
Eb|-----------------|----------------|---------------------2-3-5------
                                  
Eb|-----------------|----------------|------------------------------
Bb|-----------------|----------------|------------------------------
Gb|---9-7---3-2-0---|--9-7---0-2-----|--9-7---3-2-0--5--7-----------
Db|-2-9-7-2-3-2-0-2-|--9-7-2-0-2-3-2-|--9-7-2-3-2-0--5--7-----------
Ab|-2-----2-------2-|------2-----3-2-|------2--------3--5--------3~-
Eb|-----------------|----------------|---------------------2-3-5----

(sobre Riff 3)
Hijo del viento y la verdad que espera un gesto de esta pobre humanidad
salva a los mansos del capital  que como perros solo quieren comer mas
    
   F#               C B                  A G
Eb|-------------------------------------------
Bb|-------------------------------------------
Gb|-----------------5-4------------------2-0--     (x2)
Db|-----------------5-4------------------2-0--
Ab|-------------------------------------------
Eb|-3-0-2-3-2~-0-2-3-----3-0-2-3-2~-0-2-3-----

------------------------------------------------------------------------------------
Punteo sobre: |F G | F G | F G | F G | Bb Gm Dm Em | Bb Gm F E y Riff 1(1ra parte).

 Variacion F    Variacion G    Variacion Bb  Variacion Gm   Variacion Dm
Eb|----------  Eb|----------  Eb|----------  Eb|-3--3--3--  Eb|----------
Bb|----------  Bb|----------  Bb|-3-1-3-1--  Bb|-3--3--3--  Bb|-6-5-6-5--
Gb|-2-3-2-2--  Gb|-4-5-4-5--  Gb|-3-3-3-3--  Gb|-3--5--3--  Gb|-7-7-7-7--
Db|-3-3-3-3--  Db|-5-5-5-5--  Db|-3-3-3-3--  Db|-5--5--5--  Db|-7-7-7-7--
Ab|-3-3-3-3--  Ab|-5-5-5-5--  Ab|----------  Ab|-5--5--5--  Ab|-5-5-5-5--
Eb|-1-1-1-1--  Eb|-3-3-3-3--  Eb|----------  Eb|-3--3--3--  Eb|----------
-------------------------------------------------------------------------------------

D C            Em
   No es imposible...
C              D    B G A F Em
  Que llegue aqui...

 (sobre Riff 2)
Es como un sabio, sin comprension rey de la calle inclinandose ante vos
loco suicida te enseñara que la fortuna solo esta en la libertad

 (sobre Riff 2)  (algo asi)
Eb|-------------------------------------------
Bb|-------------------------------------------
Gb|-------------------------------------------
Db|----------------9(x13)-7-------------------      (x2)
Ab|-/7(x16)-/10(x16)--------9-10-7-10-9-7-5-7-
Eb|-------------------------------------------

y termina con Em Em

            
            
Suggest correction
Creating personal tab
Creating personal tab
You can edit any tab online and save it as your Personal.

You can edit, replace or remove any tab part or add personal notes – all changes will be seen only by you.

Personal tabs can be accessed anytime from any device, even offline.
Learn more »
Give kudos to tab author, rate the tab!
1 2 3 4 5
comments
print report bad tab
guest
Wanna post a correction for this tab? Suggest correction