Oops, an error
Loading. Please wait.

Señor Furia tab

40 views 1 this week
no commentswrite comment
1 2 3 4 5
3 more votes to show rating
add to favorites
×
Save as Personal and add changes to this tab that will be seen only by you. Learn more ›
×
You can save this tab as Personal to edit and correct it or add notes. All changes will be seen only by you. Learn more »
launch autoscroll
font size
0
reset
how to read this tab
guitar tuner
edit
Autoscroll
slow
fast
+/-
esc
set tempo
stop
Intro: (Riff1, Riff2, Riff3) x2

Riff1
e|-------------------------|
B|-------------------------|
G|-------------------------|
D|----------5--------2--2--|
A|------5-7---7-5----2--2--|
E|--5-7--------------0--0--|

Riff2
e|------------------------------------------------|----------------|
B|------------------------------------------------|----------------|
G|------------------------------------------------|----------------|
D|-------------2--2---------------2--2------------|--7-7--5-5--2-2-|
A|-5---5-6-7---2--2---5-----------2--2--5---5-6-7-|--7-7--5-5--2-2-|
E|---7---------0--0------7-6-5-3--0--0----7-------|--5-5--3-3--0-0-|

Riff3
e|------------------------------------------------|----------------|
B|------------------------------------------------|----------------|
G|------------------------------------------------|-------7-7------|
D|-------------2--2---------------2--2------------|--7-7--7-7--2-2-|
A|-5---5-6-7---2--2---5-----------2--2--5---5-6-7-|--7-7--5-5--2-2-|
E|---7---------0--0------7-6-5-3--0--0----7-------|--5-5-------0-0-|

(E5)
Abandona pronto este lugar
                                /E5-E5 Riff2
porque sé que en poco tiempo va a estallar.
(E5)
Nadie sabe lo que pasará         E5-E5-Riff4
cuando el caos queme hoy la ciudad.

Riff4
e|------------------------------------------------|--------------|
B|------------------------------------------------|--------------|
G|------------------------------------------------|--------------|
D|-------------2--2---------------2--2------------|--7-7--5-5--4-|
A|-5---5-6-7---2--2---5-----------2--2--5---5-6-7-|--7-7--5-5--4-|
E|---7---------0--0------7-6-5-3--0--0----7-------|--5-5--3-3--2-|

F#5                  E5-F#5             E5-B5
Y que haremos cuando empiece la función,
A5                E5-A5             C5-D5
si las cosas ya superan la ficción.

E5-Riff2
Rock and roll, dime tu,
Riff2
para vos, es cara o cruz.


Nadie puede respirar aquí,
ni me acuerdo de los sueños que dejé.
Cómo se hace para caminar
si los pies están hundidos en el fango.

Ya no acepto que manejen mi razón,
ya no quiero contener mi corazón.


Riff5               (muchas veces)
e|------------------|
B|------------------|
G|------------------|
D|------------------|
A|-2-2---5-6-7------|
E|-0-0---------5-7--|
Riff5
Rock and roll, dime tu,
para vos, es cara o cruz.

------
Solo - Acompañamiento: [ (A5-B5-B5-A5-B5)x2 D5-E5 (A5-B5-B5-A5-B5)x2 D5-A5 ]x2
------                   G5           A5            A5

E5
Esta noche no podré dormir,
D5                  A5             E5-E5-Riff2
aunque igual la pesadilla hoy es aquí.
E5
Somos hijos de una sociedad
D5                  A5             E5-E5-Riff4
que no tiene corazón para nada.

F#5                  E5-F#5             E5-B5
Y no sé cómo salir de esta fricción;
A5                E5-A5             C5-D5
y me pierdo por las calles a gritar:

                                     x4
e|----------------------------------------------|
B|----------------------------------------------|
G|----------------------------------------------|
D|----------------------------------------------|
A|-----5-----5--6--7---------5------------------|
E|-0------7-------------0---------7--6--5--3----|

e|----------------------------------------------------|
B|----------------------------------------------------|
G|----------------------------------------------------|
D|----------------------------------------------------|
A|-----5---5-6-7---------------7----------5-----------|
E|-0-----7---------0--0--------5----------3-----------|

Rock and roll, dime tu,
para vos, es cara o cruz.

---------------------------------
Solo de teclado acompañado con:
---------------------------------

e|----------------------------------------------|
B|----------------------------------------------|
G|----------------------------------------------|
D|----------------------------------------------|
A|-----5-----5--6--7---------5------------------|
E|-0------7-------------0---------7--6--5--3----|

Final: A5-G5-E5

            
            
Suggest correction
Creating personal tab
Creating personal tab
You can edit any tab online and save it as your Personal.

You can edit, replace or remove any tab part or add personal notes – all changes will be seen only by you.

Personal tabs can be accessed anytime from any device, even offline.
Learn more »
Give kudos to tab author, rate the tab!
1 2 3 4 5
comments
print report bad tab
guest
Wanna post a correction for this tab? Suggest correction