Oops, an error
Loading. Please wait.

Un Día Mas, Un Día Menos tab

319 views 1 this week
no commentswrite comment
1 2 3 4 5
3 more votes to show rating
add to favorites
×
Save as Personal and add changes to this tab that will be seen only by you. Learn more ›
×
You can save this tab as Personal to edit and correct it or add notes. All changes will be seen only by you. Learn more »
launch autoscroll
font size
0
reset
how to read this tab
guitar tuner
edit
Autoscroll
slow
fast
+/-
esc
set tempo
stop
hola esta es una gran rola que siempre me sube el animo
y espero mi veresion este mejor. saludos a los chidos del campa.
 ya LA HABIA MANDADO PERO ME FALTABAN
ALGUNOS ACORDES, USTEDES JUZGARAN..
intro: el rekinto se acompaña con  C#m - B - F# X2
e---8-10-11-13-11-10h11-10--11-10-8-7-----------10-------------
b-9-----------------------------------10-8-9/10-11-------------
g--------------------------------------------------------------
d--------------------------------------------------------------
A--------------------------------------------------------------
E--------------------------------------------------------------

e----9-11-12-14--12-10h12-10------10-13-12/13-10------8-13-10--
b-10----------------12----12---13------------------12------11--
g--------------------------------------------------------------
d--------------------------------------------------------------
A--------------------------------------------------------------
E--------------------------------------------------------------

e--------------------------------------------------------------
b--------------------------------------------------------------
g--------------------------------------------------------------
D--------------------------------------------------------------
A--------------------------------------------------------------
E--------------------------------------------------------------
C#m                     B   F#    C#m   B            F#
Ves al tiempo robarte otra vez el dia

e--------------------------------------------------------------
b-------------------------------12b11r(3)-14b13r-11b-10b-------
g--------------------------------------------------------------
D--------------------------------------------------------------
A--------------------------------------------------------------
E--------------------------------------------------------------
C#m                    B     F#  C#m   B            F#
otro viaje sin rumbo va a empezar

e---------------------------15b-13v----------------------------
b-----------------------13b------------------------------------
g--------------------------------------------------------------
D--------------------------------------------------------------
A--------------------------------------------------------------
E--------------------------------------------------------------
C#m                    B        F#
sigues frente al televisor

e--------------------------------------------------------------
b------------------------12/13-13/12-10------------------------
g---------------------11---------------------------------------
D--------------------------------------------------------------
A--------------------------------------------------------------
E--------------------------------------------------------------
C#m                  B        F#
y algo oprime tu corazon

e--------------------------------------------------------------
b---------------------------------5----------------------------
g-------------------------------6---6--6-4---------------------
D-----------------------------6--------6-4---------------------
A--------------------------------------4-2---------------------
E--------------------------------------------------------------
C#m                B    F#    C#m  B  F#
es que nadie se escapa del dolor

e--------------------------------------------------------------
b--------------------------------------------------------------
g-------2----4-------2-------4---------------------------------
D-----2----4-------2-------4-----------------------------------
A---0----2-------0-------2-------------------------------------
E--------------------------------------------------------------
  A        B           A       B
que pasara si algiuen no salva tu alma

CORO:

e--------------------------------------------------------------
b---------------------------------------2----------------------
g------------4-4------------------------2----------------------
D---3-2-1-0--2-2------4-----------------0----------------------
A-0-------------------4----------------------------------------
E---------------------2----------------------------------------
   E  G#  A   B       F#                 D
                y la lluvia golpea el asfalto gris

e--------------------------------------------------------------
b---------------------------------------2----------------------
g------------4-4------------------------2----------------------
D---3-2-1-0--2-2------4-----------------0----------------------
A-0-------------------4----------------------------------------
E---------------------2----------------------------------------
   E  G#  A   B       F#                 D
                y un recuerdo fugaz te hace sonreir

C#m - B - F# estos acompañan al primer solo.
solo 1:
e---13----12---11---10---9-----8----7---6-----4-----3----------
b-------------------------------------------2-----1------------
g11----10----9----8----7---8-6----5---4---3-----2--------------
D--------------------------------------------------------------
A--------------------------------------------------------------
E--------------------------------------------------------------
((((((((((((((((((((())))))))))))))))))))))))))))))))))))))))))))
e--------------------------------------------------------------
b--------------------------------------------------------------
g--------------------------------------------------------------
D---------------------------------11-13-13h14-13---------------
A------------------------------12------------------------------
E--------------------------------------------------------------
C#m                B    F#    C#m  B  F#
por la calle te cruzan ojos vacios

e-------------------------------------14b-15b-15b-14v----------
b--------------------------------------------------------------
g--------------------------------------------------------------
D--------------------------------------------------------------
A--------------------------------------------------------------
E--------------------------------------------------------------
C#m                B    F#    C#m    B      F#
son los que resignaron su fe en el amor

e--------------------------------------------------------------
b--------------------------------------------------------------
g--------------------------------------------------------------
D--------------------------------------------------------------
A--------------------------------------------------------------
E--------------------------------------------------------------
C#m          B         F#
y sus brazos te rodearan

e--------------------------------------------------------------
b--------------------------------------------------------------
g--------------------------------------------------------------
D--------------------------10-13-12-12b10r---------------------
A-----------------------12-------------------------------------
E--------------------------------------------------------------
C#m          B          F#
y sus dientes te clavaran

e--------------------------------------------------------------
b--------------------------------------------------------------
g--------------------------------------------------------------
D------------------------------11-14-13b11r--------------------
A---------------------------13---------------------------------
E--------------------------------------------------------------
C#m                B    F#    C#m  B  F#
solo puedes pararte y escapar

e--------------------------------------------------------------
b--------------------------------------------------------------
g----2--------4-----------2-------4----------------------------
D--2--------4-----------2-------4------------------------------
A0--------2-----------0-------2--------------------------------
E--------------------------------------------------------------
  A        B           A       B
que pasara si algiuen no salva tu alma

CORO:

e--------------------------------------------------------------
b--------------------
Suggest correction
Creating personal tab
Creating personal tab
You can edit any tab online and save it as your Personal.

You can edit, replace or remove any tab part or add personal notes – all changes will be seen only by you.

Personal tabs can be accessed anytime from any device, even offline.
Learn more »
Give kudos to tab author, rate the tab!
1 2 3 4 5
comments
print report bad tab
guest
Wanna post a correction for this tab? Suggest correction