Oops, an error
Loading. Please wait.

Santa Lucía tab

328 views 12 this week
no commentswrite comment
1 2 3 4 5
3 more votes to show rating
add to favorites
×
Save as Personal and add changes to this tab that will be seen only by you. Learn more ›
×
You can save this tab as Personal to edit and correct it or add notes. All changes will be seen only by you. Learn more »
launch autoscroll
font size
0
reset
how to read this tab
guitar tuner
edit
Autoscroll
slow
fast
+/-
esc
set tempo
stop
E7               G#7                 A7
La conocí en la estación Santa Lucia
E7               F#7                  B7
Ella miraba muy tristemente mi actuación
E7                       G#7                 A7
Cuando se iba le dije negra, tengo una cola
E7              B7                                   E7
Si me acompañas busco un pretexto mucho mejor

Y caminamos hacia el banco de una plaza que le llaman Brasil
No era tan lejos para despertar de un sueño para sobrevivir
Y nos quedamos tanto rato en silencio sin saber que decir
Un perro nos ladro en un salto deslizamos una risa fútil

La conocí en la estación Santa Lucia
Ella miraba los buses llenos del terminal
Le dije negra, vamos pal sur, vamos a Valdivia
Me dijo bueno, no pierdo nada, hay que probar

Solo:

|-----------------------------------------------------------------------|
|---8b9--8b9----8b9--8b9-8b9--8b9-8b9-8b9--8b9---5---------5------------|
|---------------------------------------------------6--6----------------|
|-----------------------------------------------------------------------|
|-----------------------------------------------------------------------|
|-----------------------------------------------------------------------|

|---------------------------7-------------------------------------------|
|-------8b9-8b9---9b8-(7)-------5----5--5-------5-----7-----------------|
|---6---------------------------------------6---------------------------|
|-----------------------------------------------------------------------|
|-----------------------------------------------------------------------|
|-----------------------------------------------------------------------|

|-----------------------------------------------------------------------|
|--------8b9-8b9--8b9-8b9-8b9-8b9-7------5--5-------5-----7-------------|
|---6-------------------------------------------6-----------------------|
|-----------------------------------------------------------------------|
|-----------------------------------------------------------------------|
|-----------------------------------------------------------------------|

|------------4--7---6--5--4---------------------------------------------|
|------5--7------------------7------------------------------------------|
|---6---------------------------6---5b6--4----------------------5b6--4--|
|--------------------------------------------6--4-----------------------|
|--------------------------------------------------7--4-----------------|
|--------------------------------------------------------7--------------|

Y sin pensar nos instalamos en niebla, perdón en los molinos
Vida tan simple no podíamos tener todavía mas
Yo deshacía canciones ella armaba collares cada semana
Fumando pasamos el tiempo y sin querer, dejamos de trabajar

LA parte fea

A7                                         E7
En una noche de temporal me dijo negro, yo no doy mas
A7                                         E7
Todo era un juego se que es malo jugar, solo quería experimentar
A7                   E7                             C#7
Ya me canse de tanto blues, ya me canse del frío del sur
F#7                                  B7                            E7
Quédate con tus cancioncitas, sin dinero no pagamos la luz

La conocí en la estación Santa Lucia
me dio su amor me dio su sexo me dio su arroz
me dio un portazo, en mis creencias, en mis costillas
me dijo seria, que sin dinero no se salva el amor
E7                      B7                                   E7
me dijo seria, que sin dinero no se salva el amor
F#7                        F#m7               B7
me dijo seriaaa, que sin dinerooo, no se salva el amor
E7                    C7
no se salva el amor             x 3

            
            
Suggest correction
Creating personal tab
Creating personal tab
You can edit any tab online and save it as your Personal.

You can edit, replace or remove any tab part or add personal notes – all changes will be seen only by you.

Personal tabs can be accessed anytime from any device, even offline.
Learn more »
Give kudos to tab author, rate the tab!
1 2 3 4 5
comments
print report bad tab
guest
Wanna post a correction for this tab? Suggest correction