Oops, an error
Loading. Please wait.

Sueño Su Boca tab

version 1
version 1

Whole song

by Raul
34 views 1 this week
no commentswrite comment
1 2 3 4 5
3 more votes to show rating
add to favorites
×
Save as Personal and add changes to this tab that will be seen only by you. Learn more ›
×
You can save this tab as Personal to edit and correct it or add notes. All changes will be seen only by you. Learn more »
launch autoscroll
font size
0
reset
how to read this tab
guitar tuner
edit
Autoscroll
slow
fast
+/-
esc
set tempo
stop
Esta es mi primera colaboracion con el atame espero 
les guste.
Se la quiero dedicar especialmente a Bella Sonia.
te quiero mucho Bella. 

======================================================
Tab por Augusto de Jesus Pineda Montejo
(Augusto@


Am         
|----------------------------|---------------------------|
|---------1---3--1----0--1---|--------1---3-1---0--------|
|-------2---2------2---------|-------2--2-----2----------|
|----------------------------|---------------------------|
|----0-----------------------|-----0---------------------|
|----------------------------|---------------------------|

MI
 
|----------------------------|---------------------------|
|---------------1--0---------|--------------1--0---------|
|----------1------------1----|----------1-----------2----|
|--------2---2--------2------|--------2---2-------2------|
|----------------------------|---------------------------|
|-----0----------------------|-----0---------------------|

======================================================

LAm
Pasa firme  y elegante

la mirada interesante
MI
Van temblando las aceras

Al pasar de sus caderas
LAm
Yo la observo cada día

Cuando cruza por mi calle
MI
Y construye fantasías

De locuras  y de amantes...
REm                 LAm       
Y yo no puedo entender
    DO               SOL
Que me pasa con esa mujer..

Coro

DO                       SOL
Hace tanto que sueño su boca
       REm                    LAm
Que la vida se me ha vuelto loca
DO                        
Cada noche imagino sus besos
REm                             SOL
Pero despierto y la vuelvo a perder.


DO                      SOL
Hace tanto que vivo por ella
      REm                   LAm
Hace tanto que muero sin ella
DO
Pero se que aunque sea en mis sueños
           REm                    SOL
Yo seré el dueño de su alma y su piel

Hace un año que se ha ido

Yo soy parte de su olvido

Que la quiero en la distancia

Y alimento a la esperanza

De volver al lado suyo

No volver a separarnos

Pero a veces el orgullo

Llega a los enamorados

Y yo no puedo entender

Que me pasa con esa mujer...
Suggest correction
Creating personal tab
Creating personal tab
You can edit any tab online and save it as your Personal.

You can edit, replace or remove any tab part or add personal notes – all changes will be seen only by you.

Personal tabs can be accessed anytime from any device, even offline.
Learn more »
Give kudos to tab author, rate the tab!
1 2 3 4 5
comments
print report bad tab
guest
Wanna post a correction for this tab? Suggest correction