Oops, an error
Loading. Please wait.

La Casi Trunca tab

31 views 1 this week
no commentswrite comment
1 2 3 4 5
3 more votes to show rating
add to favorites
×
Save as Personal and add changes to this tab that will be seen only by you. Learn more ›
×
You can save this tab as Personal to edit and correct it or add notes. All changes will be seen only by you. Learn more »
launch autoscroll
font size
0
reset
how to read this tab
guitar tuner
edit
Autoscroll
slow
fast
+/-
esc
set tempo
stop
Esta intro se hace tocando dos cuerdas al mismo tiempo.

1|---7-----5-----3--------7-----5-----3---|
2|---8-----6-----4--------8-----6-----4---|
3|----------------------------------------|
4|----------------------------------------|
5|----------------------------------------|
6|------0-----0-----0--0-----0-----0------|

1|--2--3--2--0-----0--2-----0-------------|
2|--3--4--3--0--3--0--3--3--0-------------|
3|--------------0--------0----------------|
4|----------------------------------------|
5|----------------------------------------|
6|----------------------------------------|


SI7           MIm
Resbaladita me llaman
        LA           SOL
por que canto a mi manera
   LA           SOL
y con mi resbaladita
      SI7         MIm
no canta cualquiera.

1|---7--7------5-----3-----7-----7-----5-----2--3--|
2|---8--8------6-----4-----8-----8-----6-----3--4--|
3|-------------------------------------------------|
4|-------------------------------------------------|
5|-------------------------------------------------|
6|----------0-----0-----0-----0-----0-----0--------|


Linda pa' desafinarla
con violines y guitarras
meta cajonear el bombo
hasta la mañana.

1|----------7------5-----3--------|
2|--------8--------6-----4--------|
3|------9-------------------------|
4|----0---------------------------|
6|--------------0-----0-----------|

1|--7--7--5--5--------3----2------|
2|--8--8--6--6------4----3--------|
3|----------------0-----0----12---|
4|--------------0-----0------12---|
6|--------------------------------|
                        Armónicos****


Pa' dentro que viene el diablo
prendido de un zarandeo
cajoneale fuerte chango
echalo bien lejos.

Estribillo

Machado dificil pueda
cantarmele una coplita
es la condicion que tiene
MI resbaladita...

1|--7--7--7--7--5--3--2s-5--3--|
2|--8--8--8--8--6--4--3s-6--4--|
3|-----------------------------|
4|-----------------------------|
5|-----------------------------|
6|-----------------------------|

1|-----------------------------|
2|------8--8--7--8--7--5--4h5--|
3|0h4---9--9--8--9--8--6--5h6--|
4|-----------------------------|
5|-----------------------------|
6|-----------------------------|

LA noche parece Abrirse
al son de su tonadita
canta la luna sonriendo
LA resbaladita.

1|--7--6--7--5--4--5--3--2--3--0--0-----0--|
2|--8--7--8--6--5--6--4--3--4--0--0--4--0--|
3|-----------------------------------0-----|
4|-----------------------------------------|
6|-----------------------------------------|

1||--7--6--7--5--4--5--3--2--3--0-----0----|
2||--8--7--8--6--5--6--4--3--4--0--3--0----|
3||--------------------------------0-------|
4||----------------------------------------|
6||----------------------------------------|

Velay me decia un chango
cada vez que yo me macho
aparezco rojo a golpes
como los quebrachos.

La salamanca me dijo
que un dia la hallo tirada
sachamanta de santiago
con unas vidalas.

Desde Bragado espero que les guste,esta es mi primera transcripció

            
            
Suggest correction
Creating personal tab
Creating personal tab
You can edit any tab online and save it as your Personal.

You can edit, replace or remove any tab part or add personal notes – all changes will be seen only by you.

Personal tabs can be accessed anytime from any device, even offline.
Learn more »
Give kudos to tab author, rate the tab!
1 2 3 4 5
comments
print report bad tab
guest
Wanna post a correction for this tab? Suggest correction