Oops, an error
Loading. Please wait.

Esta Cobardía tab

67 views 1 this week
no commentswrite comment
1 2 3 4 5
3 more votes to show rating
add to favorites
×
Save as Personal and add changes to this tab that will be seen only by you. Learn more ›
×
You can save this tab as Personal to edit and correct it or add notes. All changes will be seen only by you. Learn more »
launch autoscroll
font size
0
reset
how to read this tab
guitar tuner
edit
Autoscroll
slow
fast
+/-
esc
set tempo
stop
empieza con un bajeo asi

E------5-5--
A-1--1------ asi tres veces
D-----------
G-----------
   y luego empieza la bateria y entran las trompetas con esto
E-------------------------------
A-------------------------------
D-------------------------------
G-------------------------------
b-------------------------------
e-6h9--9-9-9/8--8-8-11-11-11-9--

E---------------------------------------
A---------------------------------------
D---------------------------------------
G---------------------------------------
b---------------------------------------
e-9-/13--13-13-13/11--11-11-15-15-15-14-

E----------------------------------
A----------------------------------
D----------------------------------
G-10-11-10--10-11-10--10-11-10-8-6-
b----------------------------------
e----------------------------------

E------------------------------------
A------------------------------------
D------------------------------------
G------------------------------------
b----------------------10-11---------
e-6h9--9-9-9/8--8-/13----------------

LA#m
No se da ni cuenta, que cuando la miro
                                  FAm
por no delatarme, me guardo un suspiro
                                    FA#
que mi amor callado se enciende con verla
             DO7        FAm
que diera la vida para poseerla

             LA#m
No se da ni cuenta, que brillan mis ojos
                                    FAm
que tiemblo a su lado y hasta me sonrojo
                                         FA#
que ella es el motivo, que a mi amor despierta
               DO7       FAm      LA#m
que ella es mi delirio y no se da cuenta

       SOL#7                 DO#
Esta cobardia de mi amor por ella
         SOL#7                  DO#
Hace que la vea igual que una estrella
           FAm                   FA#
tan lejos, tan lejos de la inmensidad
              FAm                LA#m
que no espero nunca poderla alcanzar


Tengo que vencer este miedo y decirte que te quiero mija

             LA#m
No se da ni cuenta, que ya he conseguido
                                   FAm
los calidos besos, que no me ha pedido
                                      FA#
que mis noches tristes desiertas de sueño
                  DO7      FAm
de loco deseo me siento su dueño

             LA#m
No se da ni cuenta, que ya le he gosado
                                 FAm
que ya ha sido mia, sin haberla amado
                                   FA#
que es su alma fria la que me atormenta
              DO7     FAm      LA#m
que ve que me muero y no se da cuenta

 SOL#7                 DO#
Esta cobardia de mi amor por ella
         SOL#7                  DO#
Hace que la vea igual que una estrella
           FAm                   FA#
tan lejos, tan lejos de la inmensidad
              FAm                LA#m
que no espero nunca poderla alcanzar


al final se repite el adorno de las trompetas otra vez

            
            
Suggest correction
Creating personal tab
Creating personal tab
You can edit any tab online and save it as your Personal.

You can edit, replace or remove any tab part or add personal notes – all changes will be seen only by you.

Personal tabs can be accessed anytime from any device, even offline.
Learn more »
Give kudos to tab author, rate the tab!
1 2 3 4 5
comments
print report bad tab
guest
Wanna post a correction for this tab? Suggest correction