Oops, an error
Loading. Please wait.

Anoche Soñé tab

202 views 1 this week
no commentswrite comment
1 2 3 4 5
3 more votes to show rating
add to favorites
×
Save as Personal and add changes to this tab that will be seen only by you. Learn more ›
×
You can save this tab as Personal to edit and correct it or add notes. All changes will be seen only by you. Learn more »
launch autoscroll
font size
0
reset
how to read this tab
guitar tuner
edit
Autoscroll
slow
fast
+/-
esc
set tempo
stop
EL REQUINTO TOCA CON EL CAPO EN EL 5to TRASTE


E----9--------10-------------9-------7----------------
B-------10-------10------------10------9--------------
G-9--------11-------11-----9------9-------9-------X8-

 A      D        A            E
Anoche soñe      yo soñe con ella x2
  A         D         A         E
Y Cuando desperte     Era mi morena  x2
 A         D            A        E
Morena                  Era mi morena
A         D        A         E
Hay Hombe          Era mi morena   x2

E----9--------10-------------9-------7----------------
B-------10-------10------------10------9--------------
G-9--------11-------11-----9------9-------9-------X7-

A           D      A            E
Hay ella se fue    Me dejo llorando  x2
A           D       A             E
Y ahora vivo yo     yo vivo   Cantando x2
A             D     A           E
Hay   Hombe         Yo vivo Cantando  x2
A       D            A            E
Morena               Yo vivo Cantando

E----9--------10-------------9-------7----------------
B-------10-------10------------10------9--------------
G-9--------11-------11-----9------9-------9-------X6-

A             D     A              E
Yo llevo una pena  la llevo en el alma  x2
A             D        A             E
Ay porque se fue       se me fue viviana  x2
A       D     A            E
Viviana       se me fue viviana
A         D           A             E
Hay  Hombe            se me fue viviana

E----9--------10-------------9-------7----------------
B-------10-------10------------10------9--------------
G-9--------11-------11-----9------9-------9-------X1-

E----9---------------------------9----------------------
B-------10------10---10------------10------9----9-------
G-9----------11----11----------9--------9-----9-------X2

E----9----------------------------9----------------------
B-------10------10---10-------------10------9-----9--------
G-9----------11----11----11-----9--------9-----9----9---X3

E----9-----------------------------9----------------------
B-------10------10---10--------------10------9------------
G-9----------11----11------------9--------9-----9-------X2

E----9-----------------------------9----------------------
B-------10------10---10--------------10------9-----9------
G-9----------11----11------------9--------9-----9-------X1

E----9--------10-------------9-------7----------------
B-------10-------10------------10------9--------------
G-9--------11-------11-----9------9-------9-------X2-

 A           D      A            E
Hay ella regreso   la estaba esperando  x2
A             D     A             E
Y ahora sigo yo     yo sigo   Cantando x2
A       D            A            E
Morena               Yo sigoo Cantando
A     D            A           E
Morena             Yo sigo Llorando  x2

E----9--------10-------------9-------7--------------
B-------10-------10------------10------9------------
G-9--------11-------11-----9------9-------9------X6-

 A      D        A            E
Anoche soñe      yo soñe con ella x2
  A         D         A         E
Y Cuando desperte     Era mi morena  x2
 A         D            A        E
Morena                  Era mi morena
A         D        A         E
Hay Hombe          Era mi morena   x2

E----9--------10-------------9-------7----------------
B-------10-------10------------10------9--------------
G-9--------11-------11-----9------9-------9-------X6-

E----9------------------10----------9---------7-------9---
B-------10-----------10----------10---------9---------10--
G-9------------11-11-----------9----------9-----------9---

E-------12------12---------------------12-------12----------
B----14------14------14-------------12------12---------12---
G-14------14------14----14-------13------13--------13----13-

E--------12----12--------------------12------12-------------
B-----14----------14-----14-------12-----------12-----12----
G--14-------14---------14-------13------13--------13--------

            
            
Suggest correction
Creating personal tab
Creating personal tab
You can edit any tab online and save it as your Personal.

You can edit, replace or remove any tab part or add personal notes – all changes will be seen only by you.

Personal tabs can be accessed anytime from any device, even offline.
Learn more »
Give kudos to tab author, rate the tab!
1 2 3 4 5
comments
print report bad tab
guest
Wanna post a correction for this tab? Suggest correction