Oops, an error
Loading. Please wait.

Nunca Será Siempre tab

by Rayden
579 views 3 this week
no commentswrite comment
1 2 3 4 5
2 more votes to show rating
add to favorites
×
Save as Personal and add changes to this tab that will be seen only by you. Learn more ›
×
You can save this tab as Personal to edit and correct it or add notes. All changes will be seen only by you. Learn more »
launch autoscroll
font size
0
reset
how to read this tab
guitar tuner
edit
Autoscroll
slow
fast
+/-
esc
set tempo
stop
es el mismo circulo de acordes en toda la canción
solo con pequeñas variaciones, el arpegio esta en mi opinión
exactamente igual como esta en la versión de ¨entremeses¨
espero les guste mi colaboración ya que es mi primer aporte.


estos son los acordes que utilizan ellos con pequeñas variaciones.

   EADGBe
Em 022000
Am 002200
C  032000
D  xx0202

intro arpegio

            Em
e|---------------------0-------------|
B|------------0----------0-----0-----|
G|-----0--------0----------0-----0---|
D|---2---2--------2----------------2-|
A|-2---------------------------------|
E|-----------------------------------|

                    Am
e|--------------------0--------------|
B|------------0---------0------------|
G|------2-------2---------2----------|
D|----2---2-------2------------------|
A|--0--------------------------0---2-|
E|-----------------------------------|


                C
e|-------------------0--------------|
B|-------------0-------0-----0------|
G|-------0-------0-------0-----0----|
D|-----2---2-------2-------------2--|
A|--3-------------------------------|
E|----------------------------------|


           D
e||--2--------------------------|
B||-------------0------0--------|
G||-------2-------2------2------|
D||--0-----0--------0------0----|
A||-----------------------------|
E||-----------------------------|


Em
nunca sera siempre,
            Am
Nunca digas nunca porque siempre se arrepiente,
               C
Miente mas que habla bla bla bla,
Siempre miente,
         D
Buscando los retales que esconde su bajo vientre,
Siempre fui de frente,
Y nunca fui valiente,
Quizás por el miedo a perderte, no supe tenerte,
Tentarte como la serpiente,
Nunca supe amarte,
Sabanas frías para un cuerpo de sangre caliente,

AQUI EMPIEZA RASGUEO PERO MISMOS ACORDES.

Porque por fías,
Por favor mejor estate ausente,
Como una estatua,
Como el tattoo de un adolescente,
Desobediente,
Como noche y día,
Vida y muerte,
Luna menguante, luna llena, como el sol naciente,
Insignificante,
Siempre quise ser gigante,
Rozar las nubes cuando subes y cambiar de ambiente,
Notar el viento en el semblante,
Notarlo sonriente,
Y así olvidar al don de gente y a sus semejantes,
Para siempre,

Nunca sera siempre,
Nunca digas nunca porque siempre se arrepiente,
Miente mas que habla bla bla bla,
Siempre miente,
Cuando dices hasta nunca,
O cuando dices para siempre.

            
            
Suggest correction
Creating personal tab
Creating personal tab
You can edit any tab online and save it as your Personal.

You can edit, replace or remove any tab part or add personal notes – all changes will be seen only by you.

Personal tabs can be accessed anytime from any device, even offline.
Learn more »
Give kudos to tab author, rate the tab!
1 2 3 4 5
comments
print report bad tab
guest
Wanna post a correction for this tab? Suggest correction