Oops, an error
Loading. Please wait.

Sueños chords

7 views 1 this week
no commentswrite comment
1 2 3 4 5
3 more votes to show rating
add to favorites
×
Save as Personal and add changes to this tab that will be seen only by you. Learn more ›
×
You can save this tab as Personal to edit and correct it or add notes. All changes will be seen only by you. Learn more »
launch autoscroll
font size
0
reset
transpose
0
reset
simplify chords
display chords
guitar tuner
edit
Autoscroll
slow
fast
+/-
esc
set tempo
stop
Strumming
There is no strumming pattern for this song yet. and get +5 IQ
Esta rola esta buenisima y facilisima, escucha el
disco y saca bien cada parte de la cancion porque
hay algunos arreglos que talvez no podas oir muy
bien y si no hace vos tus propios arreglos...

Intro:

    D
e||---------2---------||
B||---3---3---3---2---||
G||-----2-------2-----||
D||-0-----------------||
A||-------------------||
E||-------------------||

    D
e||-----------2-------||
B||-----3---3---3---2-||
G||-------2-------2---||
D||-0-0---------------||
A||-------------------||
E||-------------------||

Luego se toca esto unas cuantas veces, va rasgueado:

       D       Dsus4
e||----2---------3----||
B||----3---------3----||
G||----2---------2----||
D||----0---------0----||
A||----0---------0----||
E||----0---------0----||

Después vienen los versos en los que se toca esto:

e||---2------||---3------||
B||-----3----||-----3----||
G||-------2--||-------2--||
D||-0--------||-0--------||
A||----------||----------||
E||----------||----------||

Nuestros cuerpos, distanciados, mi mente no
quiso venir y se olvido de ti y de mi.

       D       Dsus4

Transparente misterio, debes saber
que solo vivir te permite morir y vivir.

       D       Dsus4

Para el coro se toca esto:

e||--------||--------||--------||--------||
B||-----3--||-----2--||-----5--||-----3--||
G||---2----||---2----||---2----||---2----||
D||-0------||-0------||-0------||-0------||
A||--------||--------||--------||--------||
E||--------||--------||--------||--------||

Empacaré mis lunas y tu bendición,
Mis noches en desvelo y tu devoción,
Las rosas frescas de tu cuerpo demencial,

En esta parte se tocan estos acordes rasgueados,
oí bien la rola y les sacas el tiempo...

     D  Dsus2  Dsus4
e||--2----0------3---||
B||--3----3------3---||
G||--2----2------2---||
D||--0----0------0---||
A||--0----0------0---||
E||--0----0------0---||

Y volare hasta que sea capaz
De mitigar todo el sueño que perdí
Por tratar de llegar hasta aquí.

Luego se toca esto con algún efecto raro del pedal...

e||---2------||---3------||
B||-----3----||-----3----||
G||-------2--||-------2--||
D||-0--------||-0--------||
A||----------||----------||
E||----------||----------||

Permanece inerte que el tiempo no
Logre penetrar tu cuerpo de cristal... de metal.

       D       Dsus4

Me despierto en tu nombre, tu ausencia y
Mi necesidad invita a caminar sobre el mar.

       D       Dsus4

Empacaré mis lunas y tu bendición,
Mis noches en desvelo y tu devoción,
Las rosas frescas de tu cuerpo demencial,
Y toda esta ansiedad que duerme sobre mi

Y volare hasta que sea capaz
De mitigar todo el sueño que perdí
Por tratar de llegar hasta aquí.

    D
e||---------2---------||
B||---3---3---3---2---||
G||-----2-------2-----||
D||-0-----------------||
A||-------------------||
E||-------------------||

    D
e||-----------2-------||
B||-----3---3---3---2-||
G||-------2-------2---||
D||-0-0---------------||
A||-------------------||
E||-------------------||

Y terminas con D.

Bueno, ai` esta la rola completita, diviertanse...

            
            
Suggest correction
Creating personal tab
Creating personal tab
You can edit any tab online and save it as your Personal.

You can edit, replace or remove any tab part or add personal notes – all changes will be seen only by you.

Personal tabs can be accessed anytime from any device, even offline.
Learn more »
Give kudos to tab author, rate the tab!
1 2 3 4 5
comments
print report bad tab
guest
Wanna post a correction for this tab? Suggest correction