Oops, an error
Loading. Please wait.

Enséñame chords

version 2
version 2

Whole song

by RBD
481 views 9 this week
no commentswrite comment
1 2 3 4 5
x 3
add to favorites
×
Save as Personal and add changes to this tab that will be seen only by you. Learn more ›
×
You can save this tab as Personal to edit and correct it or add notes. All changes will be seen only by you. Learn more »
launch autoscroll
font size
0
reset
transpose
0
reset
display chords
guitar tuner
edit
Autoscroll
slow
fast
+/-
esc
set tempo
stop
Strumming
There is no strumming pattern for this song yet. and get +5 IQ
G

INTRO

e|-------------------------------------------------------------
B|-8/10--8--10------------8-7-5~ -------------------------8----
G|------------- 9/11~ ----------7-6~-------7-7-----------------
D|---------------------77------------777/9------7h97~-77-------
A|-------------------------------------------------------------
E|-------------------------------------------------------------

e|-------------------------------------------------------------
B|---7-5~------------------------------------------------------
G|--------7-6~---------7-7-9--9/11----9--9/11-7----------------
D|--------------777/9--------------7------------7/9~-----------
A|-------------------------------------------------------------
E|-------------------------------------------------------------

     D                     A
 Es dolor el saber que lo nuestro
                           Bm
 se puede terminar porque simple
                           G
 y sencillamente nunca he sabido

 actuar.

           D
 Y sé que mueres por mi vives por mi
    A
 y nunca me has dejado atrás
        Bm
 aunque sabes que a veces yo soy
      G
 sólo miedo.

              Bm
 Pero vives en mi junto a mi,
             A
 en mi interior
                     Bm
 en este corazón confundido
                 G
 por eso te pido por favor.


 Coro:

       D       Bm              A
 Enséñame a quererte un poco más
        G           D     Bm
 y a sentir contigo, el amor que tu
     A       G              Bm
 me das, desvanece el frío quiero
 A     G
 verte ya.
      D        Bm              A
 Enséñame a quererte un poco más
       G           D     Bm
 y a vivir contigo, que no aguanto
          A       G
 la ansiedad, de saberte mío
  Bm        A    G
 quiero ir donde vas.

   D                     A
 Lejos de pensar que me estoy
                         Bm
 haciendo mal tengo que reconocer
                      G
 que todo ésto me ha salido mal.

         D
 Por eso voy a aprender, voy a vivir
 A                           Bm
 voy a abrazarte más y más y no quiero,
                             G
 y no debo, y no puedo dejar de verte.

                Bm
 Porque vives en mi, junto a mi,
        A
 en mi interior
                    Bm
 en este corazón confundido
                  G
 por eso te pido por favor.
Suggest correction
Creating personal tab
Creating personal tab
You can edit any tab online and save it as your Personal.

You can edit, replace or remove any tab part or add personal notes – all changes will be seen only by you.

Personal tabs can be accessed anytime from any device, even offline.
Learn more »
Give kudos to tab author, rate the tab!
1 2 3 4 5
comments
print report bad tab
guest
Wanna post a correction for this tab? Suggest correction