Oops, an error
Loading. Please wait.

Sálvame tab

version 1
version 1

Whole song

Interactive

by RBD
262 views 3 this week
no commentswrite comment
1 2 3 4 5
3 more votes to show rating
add to favorites
×
Save as Personal and add changes to this tab that will be seen only by you. Learn more ›
×
You can save this tab as Personal to edit and correct it or add notes. All changes will be seen only by you. Learn more »
launch autoscroll
font size
0
reset
how to read this tab
guitar tuner
edit
Autoscroll
slow
fast
+/-
esc
set tempo
stop
esta tablatura esta bien chila y se oie bien
saludos para todos los guitarristas k entran a esta pagina
sale al rato


INTRO: C# G#m B B7 

 C#                 G#m               B
E---------4-----------------4-----------------2--------
B-----6-------6---------4-------4---------4-------4----
G---6---6---6---6-----4---4---4---4-----4---4---4---4--
D-6-----------------6-----------------4----------------
A------------------------------------------------------
E------------------------------------------------------
  B7 
E---------2---------
B-----4-------4-----
G---3---3---3---3---
D-4-----------------
A-------------------
E-------------------

 C#                       G#m                   B
   Extrañarte es mi necesidad vivo en la desesperanza
E---------4--------    ---------4--------    ---------2--------
B-----6-------6----    -----4-------4----    -----4-------4----
G---6---6---6---6--    ---4---4---4---4--    ---4---4---4---4--
D-6----------------    -6----------------    -4----------------
A------------------    ------------------    ------------------
E------------------    ------------------    ------------------
                            B7 
desde que tú ya no vuelves mas
                         E---------2---------
                         B-----4-------4-----
                         G---3---3---3---3---
                         D-4-----------------
                         A-------------------
                         E-------------------
C#                       G#m                       B
  Sobrevivo por pura ansiedad Con el nudo en la garganta
E---------4--------    ---------4--------    ---------2--------
B-----6-------6----    -----4-------4----    -----4-------4----
G---6---6---6---6--    ---4---4---4---4--    ---4---4---4---4--
D-6----------------    -6----------------    -4----------------
A------------------    ------------------    ------------------
E------------------    ------------------    ------------------
                          B7 
Y es que no te dejo de pensar
                         E---------2---------
                         B-----4-------4-----
                         G---3---3---3---3---
                         D-4-----------------
                         A-------------------
                         E-------------------
F#                   C#
  Poco a poco el corazón
E---------2------------------4--------
B-----2-------2----------6-------6----
G---3---3---3---3------6---6---6---6--
D-4------------------6----------------
A-------------------------------------
E-------------------------------------


                B                F#
Va perdiendo la fe perdiendo la voz
              E---------2----------------2--------
              B-----4-------4--------2-------2----
              G---4---4---4---4----3---3---3---3--
              D-4----------------4----------------
              A-------------------------------------
              E-------------------------------------

CORO:
          G#m                B
     Sálvame del olvido sálvame de la soledad

          F#                 C#
     Sálvame del hastió estoy echo a tu voluntad

          G#m                B
     Sálvame del olvido sálvame de la oscuridad

          F#                 C#
     Sálvame del hastió no me dejes caer jamás

 C#                 G#m               B
E---------4-----------------4-----------------2--------
B-----6-------6---------4-------4---------4-------4----
G---6---6---6---6-----4---4---4---4-----4---4---4---4--
D-6-----------------6-----------------4----------------
A------------------------------------------------------
E------------------------------------------------------
  B7 
E---------2---------
B-----4-------4-----
G---3---3---3---3---
D-4-----------------
A-------------------
E-------------------


C#                       G#m                     B
  Me propongo tanto continuar pero amor es la palabra
E---------4--------    ---------4--------    ---------2--------
B-----6-------6----    -----4-------4----    -----4-------4----
G---6---6---6---6--    ---4---4---4---4--    ---4---4---4---4--
D-6----------------    -6----------------    -4----------------
A------------------    ------------------    ------------------
E------------------    ------------------    ------------------

                        B7 
Que me cuesta a veces olvidar
                      E---------2---------
                      B-----4-------4-----
                      G---3---3---3---3---
                      D-4-----------------
                      A-------------------
                      E-------------------


C#                       G#m                       B
  Sobrevivo por pura ansiedad Con el nudo en la garganta
E---------4--------    ---------4--------    ---------2--------
B-----6-------6----    -----4-------4----    -----4-------4----
G---6---6---6---6--    ---4---4---4---4--    ---4---4---4---4--
D-6----------------    -6----------------    -4----------------
A------------------    ------------------    ------------------
E------------------    ------------------    ------------------
                          B7 
Y es que no te dejo de pensar
                       E---------2---------
                       B-----4-------4-----
                       G---3---3---3---3---
                       D-4-----------------
                       A-------------------
                       E-------------------


F#                   C#
  Poco a poco el corazón
E---------2------------------4--------
B-----2-------2----------6-------6----
G---3---3---3---3------6---6---6---6--
D-4------------------6----------------
A-------------------------------------
E-------------------------------------

                B                F#
Va perdiendo la fe perdiendo la voz
              E---------2----------------2--------
              B-----4-------4--------2-------2----
              G---4---4---4---4----3---3---3---3--
              D-4----------------4----------------
              A-------------------------------------
              E-------------------------------------

CORO:
          G#m                B
     Sálvame del olvido sálvame de la soledad

          F#                 C#
     Sálvame del hastió estoy echo a tu voluntad

          G#m                B
     Sálvame del olvido sálvame de la oscuridad

          F#                 C#
     Sálvame del hastió no me dejes caer jamás


SOLO:
   C#           G#m          B                B7 
E--9---9--11-13-------------------------------------------------
B---------------9---9--11--9-12----12-12-11-9------------9---12--
G--------------------------------------------11---11-11---11----
D---------------------------------------------------------------
A---------------------------------------------------------------
E---------------------------------------------------------------


CORO:
          G#m                B
     Sálvame del olvido sálvame de la soledad

          F#                 C#
     Sálvame del hastió estoy echo a tu voluntad

          G#m                B
     Sálvame del olvido sálvame de la oscuridad

          F#                 C#
     Sálvame del hastió no me dejes caer jamás

          G#m           B        F#             C#
     Sálvame del olvido     Sálvame del hastió

          G#m
     Sálvame del olvido


Nota: el solo va acompañado de los arpegios de la intro

   C#    G#m     B    B7 
E--4------4------2-----2----
B--6------4------4-----4----
G--6------4------4-----3----
Dm 6------6------4-----4----
A--4------6------2-----2----
E--4------4------2-----2----

            
            
Suggest correction
Creating personal tab
Creating personal tab
You can edit any tab online and save it as your Personal.

You can edit, replace or remove any tab part or add personal notes – all changes will be seen only by you.

Personal tabs can be accessed anytime from any device, even offline.
Learn more »
Give kudos to tab author, rate the tab!
1 2 3 4 5
comments
print report bad tab
guest
Wanna post a correction for this tab? Suggest correction