Oops, an error
Loading. Please wait.

Tras De Mí tab

version 2
version 2

Whole song

by RBD
103 views 1 this week
no commentswrite comment
1 2 3 4 5
3 more votes to show rating
add to favorites
×
Save as Personal and add changes to this tab that will be seen only by you. Learn more ›
×
You can save this tab as Personal to edit and correct it or add notes. All changes will be seen only by you. Learn more »
launch autoscroll
font size
0
reset
how to read this tab
guitar tuner
edit
Autoscroll
slow
fast
+/-
esc
set tempo
stop
ESTA ES LA "VERSIÓN Explicación de la Tablatura:


Explicación de la Tablatura:

s= SLIDE


INTRO:

        Cm            G#       D#       A#

e|-------------------------------------------------
b|---4-6-6s8-8-8-6-4--------4-6-6s8-8-8-6-4-6-4-3--
g|--------------------5----------------------------
D|-------------------------------------------------
A|-------------------------------------------------
E|-------------------------------------------------


        Cm            G#       D#       A#

e|------------------------------------------6-8-6-8--
b|---4-6-6s8-8-8-6-4--------4-6-6s8-8-8-6-4----------
g|--------------------5------------------------------
D|---------------------------------------------------
A|---------------------------------------------------
E|---------------------------------------------------


Aquí solo acompaña una guitarra acústica con cuerdas de metal,
pero me ahorro la explicación...


Cm               G#
Tengo un ticket sin regreso
   D#           A#
Y un monton de sueños dentro de un veliz
Cm          G#
Un adios para mis viejos
D#            A#                       Fm
Mucho miedo y muchas ganas de poder vivir


(AQUI EMPIEZA EL ACOMPAÑAMIENTO DE LA GUITARRA ELECTRICA)

           A#                     Fm
Abrir las alas para escapar sin ti
            D#
Para encontrar libertad
   D#
Lejos de aquí
   A#
Lejos de aquí


Coro:

       Cm                    G#
Una guitarra y mi niñez la escuela y mi primera vez
  D#                             A#
Amigos que no he vuelto a ver se van quedando tras de mi.
    Cm                         G#
Un cigarrillo una cancion las fotos del primer amor
    D#                         A#                     Cm
Recuerdos en mi habitacion se van quedando tras de mi


Se repite el Intro...


        Cm            G#       D#       A#

e|-------------------------------------------------
b|---4-6-6s8-8-8-6-4--------4-6-6s8-8-8-6-4-6-4-3--
g|--------------------5----------------------------
D|-------------------------------------------------
A|-------------------------------------------------
E|-------------------------------------------------


        Cm            G#       D#       A#

e|------------------------------------------6-8-6-8--
b|---4-6-6s8-8-8-6-4--------4-6-6s8-8-8-6-4----------
g|--------------------5------------------------------
D|---------------------------------------------------
A|---------------------------------------------------
E|---------------------------------------------------


 G#                     D#   A#                 Cm
Ohhh...quedando tras de mi...quedando tras de mi... tras de
D#    A#
mi... ohh


  Cm                G#
Tengo un nudo en la garganta
D#            A#
Tengo un mapa que me lleva a otro pais
Cm          G#
El intento de una carta
D#
Una historia
    A#                       Fm
Y muchas ganas de poder vivir


           A#                     Fm
Abrir las alas para escapar sin ti
            D#
Para encontrar libertad
   D#
Lejos de aquí
   A#
Lejos de aquí


Coro:

       Cm                    G#
Una guitarra y mi niñez la escuela y mi primera vez
  D#                             A#
Amigos que no he vuelto a ver se van quedando tras de mi.
    Cm                         G#
Un cigarrillo una cancion las fotos del primer amor
    D#                         A#                     Cm
Recuerdos en mi habitacion se van quedando tras de mi


 G#                     D#   A#                 Cm
Ohhh...quedando tras de mi...quedando tras de mi... tras de
D#    A#
mi... ohh


Solamente toca guitarra acústica: Cm - A# - G# - A# - Cm - A# - G# - A#


       Cm                    G#
Una guitarra y mi niñez la escuela y mi primera vez
  D#                             A#
Amigos que no he vuelto a ver se van quedando tras de mi.
    Cm                         G#
Un cigarrillo una cancion las fotos del primer amor
    D#                         A#                     Cm
Recuerdos en mi habitacion se van quedando tras de mi


       Cm                    G#
Una guitarra y mi niñez la escuela y mi primera vez
  D#                             A#
Amigos que no he vuelto a ver se van quedando tras de mi.
    Cm                         G#
Un cigarrillo una cancion las fotos del primer amor
    D#                         A#                     Cm
Recuerdos en mi habitacion se van quedando tras de mi


       Cm
Una guitarra y mi niñez...


-=FIN=-


BUENO ESO ES TODO LA CANCION NO ES MUY DIFICIL
ESPECIALMENTE SI LE ECHAN GANAS
EL INTRO ESTÁ RECONTRA FACIL... MAS NO PUEDE SER...

PERO SI TIENE DUDAS ESCRIBAN SOLO DE ESTO OK??
YO LES EXPLICO DE PREFE EN EL CHAT-MSN
BUENO ESPERO QUE LES SEA DE SU AGRADO
Y PRACTIQUENLO PUEEEEEEEEES
Y SI ENCUENTRAN ALGUN ERROR, ALGO QUE DUDO MUCHO,
O SI QUIEREN MAS CANCIONES
NO DUDEN EN ESCRIBIR A Elbox_Slg@
ALLI PUEDEN HACER CUALQUIER CONSULTA

            
            
Suggest correction
Creating personal tab
Creating personal tab
You can edit any tab online and save it as your Personal.

You can edit, replace or remove any tab part or add personal notes – all changes will be seen only by you.

Personal tabs can be accessed anytime from any device, even offline.
Learn more »
Give kudos to tab author, rate the tab!
1 2 3 4 5
comments
print report bad tab
guest
Wanna post a correction for this tab? Suggest correction