Oops, an error
Loading. Please wait.

Tras De Mí tab

version 3
version 3

Whole song

by RBD
37 views 1 this week
no commentswrite comment
1 2 3 4 5
3 more votes to show rating
add to favorites
×
Save as Personal and add changes to this tab that will be seen only by you. Learn more ›
×
You can save this tab as Personal to edit and correct it or add notes. All changes will be seen only by you. Learn more »
launch autoscroll
font size
0
reset
how to read this tab
guitar tuner
edit
Autoscroll
slow
fast
+/-
esc
set tempo
stop
ESTA ES LA "VERSIÓN ACÚSTICA" DE LA CANCIÓN.

En realidad es en un concierto, no es acústico pero la mayoría
de gente la conoce así...

La versión de studio esta en otra entrega... no la confundan...
Esta versión es con medio tono mayor. Es diferente, la
otra versión está en notas sostenidas. No se CONFUNDAN !


Instrumentos en esta versión:

*Piano.
*Violín.
*Batería.
*Guitarras (mínimo 2)
*Bajo Electrónico.


Afinación: E B G D A E  (Normal)


                  ACORDES  USADOS EN ESTA ROLA
                 ==============================


   Bm          G           D           A           Em
 x=====/     ======/     ======/     ======/     ======/
 ||||||      ||||||      ||||||      ||||||      ||||||
 |ooooo      |o||||      |||o|o      ||ooo|      |oo|||
 ||||o|      o||||o      ||||o|      ||||||      ||||||
 ||oo||      ||||||      ||||||      ||||||      ||||||


Comenzemos:


-En la 1º parte está el Intro de Piano la cual ustedes pueden
tocarla en guitarra. /0.12

=========================================
                                         |
     Bm    G         D     A             |
                                         |
e|-----------------------------------    |
b|---3-2-3-------3---7-5-7-5-3-2-----    |
g|-----------0-2---------------------    |
D|-----------------------------------    |
A|-----------------------------------    |
E|-----------------------------------    |
                                         |
     Bm    G         D     A             |
                                         |
e|-----------------------------------    |
b|---3-2-3-------3---7-5-7-5-3-2-----    |
g|-----------0-2---------------------    |
D|-----------------------------------    |
A|-----------------------------------    |
E|-----------------------------------    |
                                         |
     Bm    G         D     A             |
                                         |
e|-----------------------------------    |
b|---3-2-3-------3---7-5-7-5-3-2-----    |
g|-----------0-2-----------------2-4-    |
D|-----------------------------------    |
A|-----------------------------------    |
E|-----------------------------------    |
                                         |
=========================================/


La batería hace un llamado para comenzar el siguiente juego de
cuerdas. /0.48

-Luego, Aquí hay un pequeño y sencillo juego de cuerdas o Arpegio,
lo cual se hace con el violín, pero ustedes lo pueden hacer con una
guitarra con cuerdas de Nylon y tocarlas pero al al comienzo
de las cuerdas. /0.50 Y se toca hasta  /1.07

=========================================================================
                                                                         |
   Bm                G                D               A                  |
                                                                         |
e|----------2----------------3----------------2---------------0--------  |
b|------3-------3--------3-------3--------3-------3-------2-------2----  |
g|----4---4---4---4----0---0---0---0----2---2---2---2---2---2---2---2--  |
D|------------------------------------0--------------------------------  |
A|--2-------------------------------------------------0----------------  |
E|-------------------3-------------------------------------------------  |
                                                                         |
                                                                         |
   Bm                G                D               A                  |
                                                                         |
e|----------2----------------3----------------2---------------0--------  |
b|------3-------3--------3-------3--------3-------3-------2-------2----  |
g|----4---4---4---4----0---0---0---0----2---2---2---2---2---2---2---2--  |
D|------------------------------------0--------------------------------  |
A|--2-------------------------------------------------0----------------  |
E|-------------------3-------------------------------------------------  |
                                                                         |
=========================================================================/


-Ahora entra acompañado del anterior juego de cuerdas, un pequeño
Arpegio que se hace con una segunda guitarra. /0.58 Y se
toca hasta /1.39
Por cierto está acompañado por el Violín.


==========================================
                                          |
   Bm       G        D        A           |
                                          |
e|-----2--------2--------2-------------   |
b|---3---3----2---2----3---3----2---2--   |
g|-4--------4--------2--------2---2----   |
D|-4--------5--------0--------2--------   |
A|-------------------------------------   |
E|-------------------------------------   |
                                          |
                                          |
   Bm       G        D        A           |
                                          |
e|-----2--------2--------2-------------   |
b|---3---3----2---2----3---3----2---2--   |
g|-4--------4--------2--------2---2----   |
D|-4--------5--------0--------2--------   |
A|-------------------------------------   |
E|-------------------------------------   |
                                          |
                                          |
   Bm       G        D        A           |
                                          |
e|-----2--------2--------2-------------   |
b|---3---3----2---2----3---3----2---2--   |
g|-4--------4--------2--------2---2----   |
D|-4--------5--------0--------2--------   |
A|-------------------------------------   |
E|-------------------------------------   |
                                          |
                                          |
   Bm       G        D        A           |
                                          |
e|-----2--------2--------2-------------   |
b|---3---3----2---2----3---3----2---2--   |
g|-4--------4--------2--------2---2----   |
D|-4--------5--------0--------2--------   |
A|-------------------------------------   |
E|-------------------------------------   |
                                          |
                                          |
   Bm       G        D        A           |
                                          |
e|-----2--------2--------2-------------   |
b|---3---3----2---2----3---3----2---2--   |
g|-4--------4--------2--------2---2----   |
D|-4--------5--------0--------2--------   |
A|-------------------------------------   |
E|-------------------------------------   |
                                          |
==========================================/


-A continuación el piano hace un pequeño solo, el cual ustedes
lo pueden hacer con la guitarra. /1.23
Por cierto se toca mientras el 2º Arpegio está sonando.

====================================================================
                                                                    |
        Bm                G        D         A                      |
                                                                    |
e|---------------------------------------------------------------   |
b|---2--3s7--7--7--5--3--------2--3s7--7--7--5--3--2-------------   |
g|------------------------4--------------------------------------   |
D|---------------------------------------------------------------   |
A|---------------------------------------------------------------   |
E|---------------------------------------------------------------   |
                                                                    |
                                                                    |
        Bm                G        D         A                      |
                                                                    |
e|-------------------------------------------------5--5s7--5--7--   |
b|---2--3s7--7--7--5--3--------2--3s7--7--7--5--3----------------   |
g|------------------------4--------------------------------------   |
D|---------------------------------------------------------------   |
A|---------------------------------------------------------------   |
E|---------------------------------------------------------------   |
                                                                    |
====================================================================/


Y comienza cantando pero solamente acompañada por el piano
y el bajo, es decir, guitarra no se toca. Pero si ustedes desean,
no tocan el piano y tocan solo guitarra, suena igual. Si lo prefieren
toquen Abmos =)  /1.40


Bm               G
Tengo un ticket sin regreso
   D            A
Y un monton de sueños dentro de un veliz
Bm          G
Un adios para mis viejos
D             A                        Em
Mucho miedo y muchas ganas de poder vivir


           A                      Em
Abrir las alas para escapar sin ti
            D
Para encontrar libertad
   D
Lejos de aquí
   A
Lejos de aquí


Coro:

       Bm                    G
Una guitarra y mi niñez la escuela y mi primera vez
  D                              A
Amigos que no he vuelto a ver se van quedando tras de mi.
    Bm                         G
Un cigarrillo una cancion las fotos del primer amor
    D                          A                      Bm
Recuerdos en mi habitacion se van quedando tras de mi.


Se repite el Solo del piano. Del mínuto /1.23

====================================================================
                                                                    |
        Bm                G        D         A                      |
                                                                    |
e|---------------------------------------------------------------   |
b|---2--3s7--7--7--5--3--------2--3s7--7--7--5--3--2-------------   |
g|------------------------4--------------------------------------   |
D|---------------------------------------------------------------   |
A|---------------------------------------------------------------   |
E|---------------------------------------------------------------   |
                                                                    |
                                                                    |
        Bm                G        D         A                      |
                                                                    |
e|-------------------------------------------------5--5s7--5--7--   |
b|---2--3s7--7--7--5--3--------2--3s7--7--7--5--3----------------   |
g|------------------------4--------------------------------------   |
D|---------------------------------------------------------------   |
A|---------------------------------------------------------------   |
E|---------------------------------------------------------------   |
                                                                    |
====================================================================/


 G                      D    A                  Bm
Ohhh...quedando tras de mi...quedando tras de mi... tras de
D      A
mi... ohh


  Bm                G
Tengo un nudo en la garganta
D             A
Tengo un mapa que me lleva a otro pais
Bm          G
El intento de una carta
D
Una historia
    A                        Em
Y muchas ganas de poder vivir


           A                      Em
Abrir las alas para escapar sin ti
            D
Para encontrar libertad
   D
Lejos de aquí
   A
Lejos de aquí


Coro:

       Bm                    G
Una guitarra y mi niñez la escuela y mi primera vez
  D                               A
Amigos que no he vuelto a ver se van quedando tras de mi.
    Bm                         G
Un cigarrillo una cancion las fotos del primer amor
    D                          A                      Bm
Recuerdos en mi habitacion se van quedando tras de mi.


G                      D    A                  Bm  G
Ohhh...quedando tras de mi...quedando tras de mi... tras de
D      A
mi... ohh


Solamente toca la guitarra en un
tono diferente (más rápido): Bm - A - G - A - Bm - A - G - A


Se repite el Solo del piano. Del mínuto /1.23

====================================================================
                                                                    |
        Bm                G        D         A                      |
                                                                    |
e|---------------------------------------------------------------   |
b|---2--3s7--7--7--5--3--------2--3s7--7--7--5--3--2-------------   |
g|------------------------4--------------------------------------   |
D|---------------------------------------------------------------   |
A|---------------------------------------------------------------   |
E|---------------------------------------------------------------   |
                                                                    |
                                                                    |
        Bm                G        D         A                      |
                                                                    |
e|-------------------------------------------------5--5s7--5--7--   |
b|---2--3s7--7--7--5--3--------2--3s7--7--7--5--3----------------   |
g|------------------------4--------------------------------------   |
D|---------------------------------------------------------------   |
A|---------------------------------------------------------------   |
E|---------------------------------------------------------------   |
                                                                    |
====================================================================/


       Bm                    G
Una guitarra y mi niñez la escuela y mi primera vez
  D                               A
Amigos que no he vuelto a ver se van quedando tras de mi.
    Bm                         G
Un cigarrillo una cancion las fotos del primer amor
    D                          A                      Bm
Recuerdos en mi habitacion se van quedando tras de mi.


       Bm                    G
Una guitarra y mi niñez la escuela y mi primera vez
  D                               A
Amigos que no he vuelto a ver se van quedando tras de mi.
    Bm                         G
Un cigarrillo una cancion las fotos del primer amor
    D                          A                      Bm
Recuerdos en mi habitacion se van quedando tras de mi.


Una guitarra y mi niñez...


-=FIN=-


BUENO ESO ES TODO LA CANCION NO ES MUY DIFICIL
ESPECIALMENTE SI LE ECHAN GANAS
EL INTRO ESTÁ RECONTRA FACIL... MAS NO PUEDE SER...

PERO SI TIENE DUDAS ESCRIBAN SOLO DE ESTO OK??
YO LES EXPLICO DE PREFE EN EL CHAT-MSN
BUENO ESPERO QUE LES SEA DE SU AGRADO
Y PRACTIQUENLO PUEEEEEEEEES
Y SI ENCUENTRAN ALGUN ERROR, ALGO QUE DUDO MUCHO,
O SI QUIEREN MAS CANCIONES
NO DUDEN EN ESCRIBIR A Elbox_Slg@
ALLI PUEDEN HACER CUALQUIER CONSULTA

            
            
Suggest correction
Creating personal tab
Creating personal tab
You can edit any tab online and save it as your Personal.

You can edit, replace or remove any tab part or add personal notes – all changes will be seen only by you.

Personal tabs can be accessed anytime from any device, even offline.
Learn more »
Give kudos to tab author, rate the tab!
1 2 3 4 5
comments
print report bad tab
guest
Wanna post a correction for this tab? Suggest correction