Oops, an error
Loading. Please wait.

Tras De Mí tab

version 4
version 4

Whole song

by RBD
34 views 1 this week
no commentswrite comment
1 2 3 4 5
3 more votes to show rating
add to favorites
×
Save as Personal and add changes to this tab that will be seen only by you. Learn more ›
×
You can save this tab as Personal to edit and correct it or add notes. All changes will be seen only by you. Learn more »
launch autoscroll
font size
0
reset
how to read this tab
guitar tuner
edit
Autoscroll
slow
fast
+/-
esc
set tempo
stop
Hola a todos , aquí esta Trás de mi de RBD que esta con los acordes y tabs
100% correctos creo .

Nota - Los (....) después de una nota en el tab significa
       que sigue sonando .

     - En el coro si tocan con distorsión toquen las Quintas
       de cada acorde .

Acordes :

      E A D G B E
Cm  = x 3 5 5 4 3
G#  = 4 6 6 5 4 4
D#  = x 6 8 8 8 6
A#  = 6 8 8 7 6 6
F5  = 1 3 3 x x x
G#5 = 4 6 6 x x x
A#5 = 6 8 8 x x x


Intro :

         Cm       G#         D#       A#
e ----------------------------------------------
B -------8...----------------8...---------------
G --8/10-----10-8-------8/10-----10-8-10-8-7..--
D ----------------10....------------------------
A ----------------------------------------------
E ----------------------------------------------

         Cm       G#         D#       A#
e -------------------------------------------------------------
B -------8...----------------8...-----11..111111-13-11-13....--
G --8/10-----10-8-------8/10-----10-8--------------------------
D ----------------10....---------------------------------------
A -------------------------------------------------------------
E -------------------------------------------------------------


Cm               G#
Tengo un ticket sin regreso
 D#              A#
y un monton de sueños dentro de un veliz
Cm          G#
un adios para mis viejos ,
 D#            A#                      F5
mucho miedo y muchas ganas de poder vivir .

          G#5                    F5
abrir las alas para escapar sin fin
            G#5
para encontrar libertad
   A#5             A#5
lejos de aqui , lejos de aquí .

  Cm
una guitarra y mi niñez ,
      G#
la escuela y mi primera vez ,
  D#
amigos q no he vuelto a ver
    A#
se van quedando tras de mi .

    Cm
un cigarrillo , una canción ,
     G#
las fotos de un primer amor ,
   D#
recuerdos en mi habitación
    A#
se van quedando tras de mi .

         Cm       G#         D#       A#
e ----------------------------------------------
B -------8...----------------8...---------------
G --8/10-----10-8-------8/10-----10-8-10-8-7..--
D ----------------10....------------------------
A ----------------------------------------------
E ----------------------------------------------

         Cm       G#         D#       A#
e -------------------------------------------------------------
B -------8...----------------8...-----11..111111-13-11-13....--
G --8/10-----10-8-------8/10-----10-8--------------------------
D ----------------10....---------------------------------------
A -------------------------------------------------------------
E -------------------------------------------------------------

Cm                G#
tengo un nudo en la garganta ,
D#             A#
tengo un mapa que me lleva a otro país ,
Cm          G#
el intento de una carta ,
D#              A#                      F5
una historia y muchas ganas de poder vivir .

          G#5                    F5
abrir las alas para escapar sin fin ,
            G#5
para encontrar libertad
   A#5             A#5
lejos de aquí , lejos de aquí .

  Cm
una guitarra y mi niñez ,
      G#
la escuela y mi primera vez ,
  D#
amigos q no he vuelto a ver
    A#
se van quedando tras de mi .

    Cm
un cigarrillo , una canción ,
     G#
las fotos de un primer amor ,
   D#
recuerdos en mi habitación
    A#
se van quedando tras de mi .

Cm G# D# A#
Cm G# D# A#

Cm A# G# A#
Cm A# G# A#


 [Cm]
una guitarra y mi niñez ,
     [G#]
la escuela y mi primera vez ,
 [D#]
amigos q no he vuelto a ver
   [A#]
se van quedando tras de mi .

   [Cm]
un cigarrillo , una canción ,
    [G#]
las fotos de un primer amor ,
  [D#]
recuerdos en mi habitación
    A#
se van quedando tras de mi .

  Cm
una guitarra y mi niñez ,
      G#
la escuela y mi primera vez ,
  D#
amigos q no he vuelto a ver
    A#
se van quedando tras de mi .

    Cm
un cigarrillo , una canción ,
     G#
las fotos de un primer amor ,
   D#
recuerdos en mi habitación
    A#
se van quedando tras de mi .


una guitarra y mi niñez .

                                             FIN

Cualquier cosa a mi email .
Suggest correction
Creating personal tab
Creating personal tab
You can edit any tab online and save it as your Personal.

You can edit, replace or remove any tab part or add personal notes – all changes will be seen only by you.

Personal tabs can be accessed anytime from any device, even offline.
Learn more »
Give kudos to tab author, rate the tab!
1 2 3 4 5
comments
print report bad tab
guest
Wanna post a correction for this tab? Suggest correction