Oops, an error
Loading. Please wait.

Melodía De Amor tab

221 views 6 this week
no commentswrite comment
1 2 3 4 5
2 more votes to show rating
add to favorites
×
Save as Personal and add changes to this tab that will be seen only by you. Learn more ›
×
You can save this tab as Personal to edit and correct it or add notes. All changes will be seen only by you. Learn more »
launch autoscroll
font size
0
reset
how to read this tab
guitar tuner
edit
Autoscroll
slow
fast
+/-
esc
set tempo
stop
Está transcripción está en el tono original. Les aseguro que
es 99% correcta, sino es que al 100%, espero sea de su agrado
a darle!!!

solo de la introducción:

e--8-10-8-7-6--5--7-8-10--8-7-8--3---
B--------------6--8-8-8---8-8-8--5---

e--12--8----4-5-4-5-5--5-7-7--7-5-7--8
B--------8--5-6-5-6-6--6-8-8--8-6-8--8

acordes intro: F G C

C           F
Melodia de amor
G               C
Voz nacida del alma
                F
chu chu por tu amor
G             C
canto esta cancion

            F
Melodia de amor
G                 C
quiero oirte por siempre
                F
chu chu sin tu amor
G        C
vida morire


C
Cuando te conocí te conoci
               G
me enamore de ti de ti de ti

y cuando my cuando te bese mi amor
               C
no se lo que senti senti-senti

C
Si tu me quieres mas
C7         F
yo sere feliz
              C
si amor me quieres tu

G           C
si amor te quiero yo
F                C
por siempre la ilusion
G              C
!Oh,melodia de amor!

solo:

e--8-10-8-7-6--5--7-8-10--8-7-8--3---
B--------------6--8-8-8---8-8-8--5---

e--12--8----4-5-4-5-5--5-7-7--7-5-7--8
B--------8--5-6-5-6-6--6-8-8--8-6-8--8

e--8-10-8-7-6------5-----5----------7-----7---
B--------------5h6---5h6---5-5--7h8---7h8---7-

e-8----3---12--8----4-5-4-5-5--5-7-7--7-5-7--8
B-8----5---------8--5-6-5-6-6--6-8-8--8-6-8--8

tab por chuy arellano!!! saludos para patty y abril :P

            
            
Suggest correction
Creating personal tab
Creating personal tab
You can edit any tab online and save it as your Personal.

You can edit, replace or remove any tab part or add personal notes – all changes will be seen only by you.

Personal tabs can be accessed anytime from any device, even offline.
Learn more »
Give kudos to tab author, rate the tab!
1 2 3 4 5
comments
print report bad tab
guest
Wanna post a correction for this tab? Suggest correction