Oops, an error
Loading. Please wait.

Niña De Trapo tab

by Recarga
10 views 1 this week
no commentswrite comment
1 2 3 4 5
3 more votes to show rating
add to favorites
×
Save as Personal and add changes to this tab that will be seen only by you. Learn more ›
×
You can save this tab as Personal to edit and correct it or add notes. All changes will be seen only by you. Learn more »
launch autoscroll
font size
0
reset
how to read this tab
guitar tuner
edit
Autoscroll
slow
fast
+/-
esc
set tempo
stop
NIÃ?A DE TRAPO Â? RECARGA 

    *Intro*                (X3)
1|-------------------||------------||------------|
2|-------------------||------------||------------|
3|-------------------||------------||------------|
4|---------9-8-6~~---||------4/6---||------------|
5|--9^11^9-----------||--6-6-2/4---||--2-2-4-4---|
6|-------------------||--4-4-------||--0-0-2-2---|
    (X3)
|------------||------||------------------||
|------------||------||------------------||
|------------||------||------------------||
|------4/6---||------||--------9-8-6~~---||
|--6-6-2/4---||--2---||--9^11^9----------||
|--4-4-------||--0---||------------------||

* Verso I *

       (X3)
1|------------|------------||
2|------------|------------||
3|------------|------------||
4|------4/6---|------------||
5|--6-6-2/4---|--2-2-4-4---||
6|--4-4-------|--0-0-2-2---||(X4)

|------------||
|------------||
|------------||
|------------||
|--2~~-4~~---||
|--0~~-2~~---|| P.M

|---------||
|---------||
|---------||
|---5~~---||
|---------||
|---------||

      Y se que tal vez (y se que tal vez)
1|----------------------------------------
2|----------------------------------------
3|----------------------------------------
4|-6----9-----------9-----4----------6----
5|-6----9-----------7-----4----------6----
6|-4----7-----------0-----2----------4----

Un día me encontraras (un día me encontraras)
---------------------------------------------||
---------------------------------------------||
---------------------------------------------||
---9---------------9------4--------------6---||
---9---------------7------4--------------6---||
---7---------------0------2--------------4---||

  Niña de trapo donde estas (niña de trapo donde estas)
1|------------------------------------------------
2|------------------------------------------------
3|------------------------------------------------
4|--------9----------9------------4----------6----
5|--------9----------7------------4----------6----
6|--------7----------0------------2----------4----

           No sabes cuanto me faltas (no sabes cuanto...
-------------------------------------||
-------------------------------------||
-------------------------------------||
---------9---------9-------------4---||
---------9---------7-------------4---||
---------7---------0-------------2---||


(Rep. * Verso I *)

* Intermedio *

1|------------------------------------------------||
2|------------------------------------------------||
3|------------------------------------------------||
4|------------8/9---8-------------8/9---8---6/8---||
5|--6-6-6-6---6/7---6---6-6-6-6---6/7---6---4/6---||
6|--4-4-4-4-------------4-4-4-4-------------------|| (X4)

1|----------------------------------------------------||
2|----------------------------------------------------||
3|-----------------------------------4------------6---||
4|-----------6-----------4-------4-----------6--------||
5|------6-----------2--------2-2---2-----4-4---4------||
6|--4-4---4-----0-0---0-------------------------------||(X8)

|----------------||
|----------------||
|--------9-9-9---||
|--6-6---9-9-9---||
|--6-6---7-7-7---||
|--4-4-----------||


1|------------------------------------------------||
2|------------------------------------------------||
3|------------------------------------------------||
4|------------8/9---8-------------8/9---8---6/8---||
5|--6-6-6-6---6/7---6---6-6-6-6---6/7---6---4/6---||
6|--4-4-4-4-------------4-4-4-4-------------------|| (X4)

Y se que tal vez...

1|-------------------||
2|-------------------||
3|-------------------||
4|---------9-8-6~~---||
5|--9^11^9-----------||
6|-------------------||


        Un día me encontraras (un día me encontraras)
1|---------------------------------------------------||
2|---------------------------------------------------||
3|---------------------------------------------------||
4|--6-------9--------------9------4--------------6---||
5|--6-------9--------------7------4--------------6---||
6|--4-------7--------------0------2--------------4---||

  Niña de trapo donde estas (niña de trapo donde estas)
1|------------------------------------------------
2|------------------------------------------------
3|------------------------------------------------
4|--------9----------9------------4----------6----
5|--------9----------7------------4----------6----
6|--------7----------0------------2----------4----

           No sabes cuanto me faltas (no sabes cuanto...
-------------------------------------||
-------------------------------------||
-------------------------------------||
---------9---------9-------------4---||
---------9---------7-------------4---||
---------7---------0-------------2---||

     (X3)                       (X3)
1|------------|------------||------------|----------||
2|------------|------------||------------|----------||
3|------------|------------||------------|----------||
4|------4/6---|------------||------4/6---|----------||
5|--6-6-2/4---|--2-2-4-4---||--6-6-2/4---|--4-4-4---||
6|--4-4-------|--0-0-2-2---||--4-4-------|--2-2-2---||


Y aqui sta otra de Recarga... me demore en sacarla pero q xuxa
ya ps... gozenlaaa!!!.. pa los ineptos q solo entan a esta pagina
pa copiarse las canciones... aprendan a afinar el oido ¡hijos!

            
            
Suggest correction
Creating personal tab
Creating personal tab
You can edit any tab online and save it as your Personal.

You can edit, replace or remove any tab part or add personal notes – all changes will be seen only by you.

Personal tabs can be accessed anytime from any device, even offline.
Learn more »
Give kudos to tab author, rate the tab!
1 2 3 4 5
comments
print report bad tab
guest
Wanna post a correction for this tab? Suggest correction