Oops, an error
Loading. Please wait.

Una Vida Vida Más tab

34 views 1 this week
no commentswrite comment
1 2 3 4 5
3 more votes to show rating
add to favorites
×
Save as Personal and add changes to this tab that will be seen only by you. Learn more ›
×
You can save this tab as Personal to edit and correct it or add notes. All changes will be seen only by you. Learn more »
launch autoscroll
font size
0
reset
how to read this tab
guitar tuner
edit
Autoscroll
slow
fast
+/-
esc
set tempo
stop
ESTA CANCION VA DEDICADA
A LA BANDA EN LA KE ESTOY AHORITA
LLAMADA:
"VELAMEN NOCTIS"
LOS INVITO AL MYSPACE KE ES:


gracias a
Alan
Felipe
Aldo
Fercho
por todo su apoyo

Intro
   Am        F
G/-----5-4-------9-7-/
D/-7-----------7-----/
A/---7-----7-8-------/
E/-------------------/
          Am5      G5          F5
G/----------------------10/12-12-10-9h10h9-7/
D/-10-9-7---7-10-9----9---------------------/
A/--------8--------10-----------------------/
E/------------------------------------------/
   Am5     F5           C5    B5  Am5
G/-----5-4-------9-7----------------/
D/-7-----------7--------10-10-9-9-7-/
A/---7-----7-8----------10-10-9-9-7-/
E/----------------------8--8--7-7-5-/


Am5            F5
Vuelvo a mirar siempre hacia atrás
Am5   G5            F5
Los momentos que pasamos
Am5                   F5
Tiemblo al pensar que ya no estarás
Am5  G5              Am5   C5
Tu recuerdo me hace daño

Am5               F5
Buscando el aire con las manos
Am5              F5
Ansiando por un despertar
Am5                 G5     F5
¿Por qué tus ojos se han cerrado?

Am5          G5
Y otra vez poder buscar
C5           Dm5
Tiempo para verte
F5   G5    Am
¡Una vida más!
Am5          G5
Y esa luz en tu mirar
C5           Dm5
Brilla para siempre
F5   G5    Dm5
¡Una vida más!

Am5               F5
No volverá la estrella fugaz
Am5     G5          F5
No me quedan más deseos
Am5              F5
Mi alma se irá hacia aquel lugar
Am5        C5            Am5   C5
Quiero el tacto de tus dedos

Am5                 F5
Llorar, el tiempo se ha parado
Am5              F5
Saber que todo acabara
Am5                G5     F5
Gritar a un cielo despiadado

Am5          G5
Y otra vez poder buscar
C5           Dm5
Tiempo para verte
F5   G5    Am
¡Una vida más!
Am5          G5
Y esa luz en tu mirar
C5           Dm5
Brilla para siempre
F5   G5    Dm5
¡Una vida más!

C5, G#5, A#5, G5

D/---5-4-5-5---5-4-5-5---5-4-5-5-------/
A/-7---------7---------7---------5-3-2-/
E/-------------------------------------/

*_*_*_* SOLO *_*_*_*

GUITARRA BASE
Dm5, A#5, Dm5, C5, A#5, Dm5, C5, A#5.

GUITARRA PRINCIPAL
E/------------------------------------8----10-8-------------/
B/---------6-5-------8/10-8------8-10---10------10-8----8h10/
G/-----7-----------7--------9-10---------------------10-----/
D/---7---7-----7-8------------------------------------------/
A/-5--------------------------------------------------------/
E/----------------------------------------------------------/

E/-------------------------------/
B/---------8---------8-----------/
G/-10-7-10---10-7-10---10-5-5-7-7/
D/-------------------------------/
A/-------------------------------/
E/-------------------------------/


E/--10b-----------------------------------------------------------/
B/--10b-10-10-10-10-8---------6h8h6h8h6-5h6h5h6h5-3h5h3h5h-2h3h2h3/
G/--------------------10-7-10-------------------------------------/
D/----------------------------------------------------------------/
A/----------------------------------------------------------------/
E/----------------------------------------------------------------/

Dm5          C5
Y otra vez poder buscar
F5           Gm5
Tiempo para verte
A#5   C5    Dm5
¡Una vida más!
Dm5          C5
Y esa luz en tu mirar
F5           Gm5
Brilla para siempre
A#5   C5    Dm5
¡Una vida más!


BUENO AKI LES DEJO LA CANCION,
PARA CUALQUIER COSA AKI DEJO
MI CORREO
keondaogt@
Y PUES ME COSTO MUCHO
SACAR EL SOLO DE GUITARRA
AUNKE ESTA FACIL ESPERO KE
LES SIRVA DE ALGO LA TAB

            
            
Suggest correction
Creating personal tab
Creating personal tab
You can edit any tab online and save it as your Personal.

You can edit, replace or remove any tab part or add personal notes – all changes will be seen only by you.

Personal tabs can be accessed anytime from any device, even offline.
Learn more »
Give kudos to tab author, rate the tab!
1 2 3 4 5
comments
print report bad tab
guest
Wanna post a correction for this tab? Suggest correction