Oops, an error
Loading. Please wait.

Ahi Están bass

20 views 3 this week
no commentswrite comment
1 2 3 4 5
3 more votes to show rating
add to favorites
×
Save as Personal and add changes to this tab that will be seen only by you. Learn more ›
×
You can save this tab as Personal to edit and correct it or add notes. All changes will be seen only by you. Learn more »
launch autoscroll
font size
0
reset
guitar tuner
edit
Autoscroll
slow
fast
+/-
esc
set tempo
stop
	Intro (empieza guitarra sola)
G|--------------------|----------------------------------------------------------|-------------------|
D|----------------3---|-------3-------------7-------------------5-5-4-4----------|-------------------| reggue
A|----2--------2------|2-2-2----2---5-5-5----5---------7----------------5--------|----2--------------|
E|--------------------|----------------------------5-5-5----5--------------------|-------------------|

G|---------------------------------------------------------------------------------------------|
D|------------4-4-----------4-4-5-5-7-7--------------------------------------------------------| Ska
A|----2-2-5-5------5-5--5-5---------------------4-4-7-7-4-4------3-3-------3-3-----------------|
E|------------------------------------------5-5-------------5-5-------5-5----------------------|

G|-----------|----------------------------------------------------------|
D|-----------|----------------------------------------------------------| Coro Ahi estan yanquis!!!yanquis!!
A|-----------|-------------------5-5------------------------------------|
E|---3333----|-----7777---3333--------5-5-------------------------------|

G|-----------------------------------------|
D|-----------------------------------------| x paros antes del solo
A|----------------------5-5----------------|
E|---7--7--7--7--3-3-----------------------|

En el solo se usan la misma base del coro.

Punk rock ( desde la gran farza de la colonizacion...)
G|---------------------------------------|
D|---------------------------------------| x 4
A|----------------------------5--7-------|
E|----7777--3333--5555--5--7-------------|

Final reggae ( pero que importa la dolarizacion...)
G|------------|--------------------------------------------------------------------------|
D|------------|---------4--------------------------7-------------------------------------|
A|------------|--2-2-2-----2---------5------5-5-5-----5----------7-----------------------|
E|---3333-----|----------------3-3-3---3-------------------5-5-5----5--------------------|

Letras:

Pero que importa que tengan el control de nuestra cooltura y de nuestra nacion
pero ke importa la dolarizacion de nuestro dinero y que pierda su valor(bis)

Donde quiera que alla un pueblo que su cultura se este por acabar
donde quiera que allan ocupado una ciudad sin derecho a protestar
donde quiera que hagan una guerra con la excusa de hacer la paz
donde quiera que alla una fuente para sus rikesas poder alimentar.

Ahi estan!!! Yanquis Yanquis!!!....

Desde la gran farza de la colonizacion, hemos sido victimas
de esta gran represion, independencias que no tienen el poder
frente al imperio llamado iuesei(USA) nuestra cultura nos a sido arrebatada
su cultura nos a sido implantada, ellos controlan el famoso cienen(CNN)
lo que sucede realmente no lo ves!!!!

Pero que importa la dolarizacion de nuestra dinero y que pierda su valor


    

            
            
Suggest correction
Creating personal tab
Creating personal tab
You can edit any tab online and save it as your Personal.

You can edit, replace or remove any tab part or add personal notes – all changes will be seen only by you.

Personal tabs can be accessed anytime from any device, even offline.
Learn more »
Give kudos to tab author, rate the tab!
1 2 3 4 5
comments
print report bad tab
guest
Wanna post a correction for this tab? Suggest correction