Oops, an error
Loading. Please wait.

Niña tab

version 2
version 2

Whole song

by Reik
113 views 1 this week
no commentswrite comment
1 2 3 4 5
2 more votes to show rating
add to favorites
×
Save as Personal and add changes to this tab that will be seen only by you. Learn more ›
×
You can save this tab as Personal to edit and correct it or add notes. All changes will be seen only by you. Learn more »
launch autoscroll
font size
0
reset
how to read this tab
guitar tuner
edit
Autoscroll
slow
fast
+/-
esc
set tempo
stop
Estos son los riff q se usan en los primeros versos

Riff 1
D|--------------
A|-2h3h2-------0
E|-------2h3----

Riff 2
D|--------------
A|-2h3h2--------
E|-------2h3---1

Intro:

Riff 1

Am
Desde aquel momento en que te vi  (Riff 1)
Am
No eh dejado de pensar en ti (Riff 2)
F                                 G          C
Y aunque solo fue una vez caí rendido a tus pies (Riff 1)
Am
Y no se como acercarme a ti (Riff 1)
Am
preguntarte si quieres salir (Riff 2)
F
Y empezarte a conquistar
        G            C
hasta llegarte a enamorar


Am
niña en mi mente estas
Am
y no te puedo olvidar
F
todo el tiempo pensando en ti
   G            C
y no te puedo encontrar

Am
niña donde andarás
C
si en mis sueños siempre estas
F
eres dueña de mi alma
   G            C
eres toda mi felicidad

(Riff 1)
Am
quiero descubrir como eres tu
C
y abrazarte bajo el cielo azul
F
con el tiempo tu sabrás
        G        C
que esto no fue casualidad (Riff 1)

Am
sueño con tenerte junto a mi
C
ya veras que yo te haré feliz
F
solo dame una señal
          G               C
para que yo te pueda amar

Am
niña en mi mente estas
C
y no te puedo olvidar
F
todo el tiempo pensando en ti
   G            C
y no te puedo encontrar

Am
niña donde andarás
C
si en mis sueños siempre estas
F
eres dueña de mi alma
   G            C
eres toda mi felicidad


y ya me quiero mirar      |
en esos ojos de mar       |  en esta parte no
con los que tanto sueño   |    hay guitarra
solo dame una señal       |


***Luego de esto se toca esto***

e|----------------------------------8-
B|-13/15-15-15/13-13---8/10-10-10/8---
G|------------------------------------
D|------------------------------------
A|------------------------------------
E|------------------------------------

e|---------------------------------------
B|-8/10--8/10---8-10---------8/10---8/10-
G|------------9------7/9--7--------------
D|---------------------------------------
A|---------------------------------------
E|---------------------------------------

e|--------------------8---15/17-15-
B|---8-10--------8-/10-------------
G|-9-------7/9---------------------
D|---------------------------------
A|---------------------------------
E|---------------------------------

e|--10/12-12/10-8-------10-10/12--8-
B|---8----------------10-8----------
G|----------------------------------
D|----------------------------------
A|----------------------------------
E|----------------------------------

e|-21b22-20v-----17-15-12-10h12-10-8-
B|-----------------------------------
G|-----------------------------------
D|-----------------------------------
A|-----------------------------------
E|-----------------------------------

e|----8h10-8----8----
B|-10--------10------
G|-------------------
D|-------------------
A|-------------------
E|-------------------

Am
quiero descubrir como eres tu
C
y abrazarte bajo el cielo azul
F
con el tiempo tu sabrás
           G        C
que esto no fue casualidad

Am
sueño con tenerte junto a mi
C
ya veras que yo te haré feliz
F
solo dame una señal
         G             C
para que yo te pueda amar

Am
niña en mi mente estas
C
y no te puedo olvidar
F
todo el tiempo pensando en ti
   G            C
y no te pueda encontrar

Am
niña donde andarás
C
si en mis sueños siempre estas
F
eres dueña de mi alma
   G            C
eres toda mi felicidad

            
            
Suggest correction
Creating personal tab
Creating personal tab
You can edit any tab online and save it as your Personal.

You can edit, replace or remove any tab part or add personal notes – all changes will be seen only by you.

Personal tabs can be accessed anytime from any device, even offline.
Learn more »
Give kudos to tab author, rate the tab!
1 2 3 4 5
comments
print report bad tab
guest
Wanna post a correction for this tab? Suggest correction