Oops, an error
Loading. Please wait.

Te Fuiste De Aquí tab

version 2
version 2

Whole song

Interactive

by Reik
147 views 1 this week
no commentswrite comment
1 2 3 4 5
3 more votes to show rating
add to favorites
×
Save as Personal and add changes to this tab that will be seen only by you. Learn more ›
×
You can save this tab as Personal to edit and correct it or add notes. All changes will be seen only by you. Learn more »
launch autoscroll
font size
0
reset
how to read this tab
guitar tuner
edit
Autoscroll
slow
fast
+/-
esc
set tempo
stop
A diferencia de la versión anterior que era la versión acustica..
Esta es la de la cancion oficial..

Intro:

El tono de la segunda guitarra esta en F

Primera Guitarra
      D      C      G    D          Bm     C          G     Gm
1|--0-2------0------x----x----|------2----------0------------x----
2|-3----3------3-0--x----3----|----3---3------1---1---0------x----
3|-2--------------0-0----2----|--4---------0----------0------3----
4|-0----------------0----0----|--4---------2----------0------5----
5|-----------3------2---------|--2---------3----------2------5----
6|------------------3---------|-----------------------3------3----

Segunda Guitarra
1|------------------------------------------------------
2|------------------------------------------------------
3|----------5-7--7/9--5-3-5--5/7--3--2-1----------------
4|------------------------------------------------------
5|------------------------------------------------------
6|------------------------------------------------------

--Versos--
Te fuiste de aquí sin pensarlo
Dijiste que no me amabas más
1|--------------------------------------------------
2|--------------------------------------------------
3|--------------7-9h10h9-----------9/7--------------
4|----------7-9-------------------------------------
5|--------------------------------------------------
6|--------------------------------------------------

Yo te supliqué quédate aquí
Yo no sé que haría sin tí,
no creo soportarlo...
1|--------------------------------------------------
2|--------------------------------------------------
3|------------5---5--7/4--5--------------------------
4|--------------5-----------------------------------
5|--------------------------------------------------
6|--------------------------------------------------

Te fuiste de aquí,
todo ha acabado                y llora mi alma en soledad
1|-------------------------------------------------------
2|--------5h6h5-----8------------------------------------
3|--------------5/7---7/9-------------------------7/5----
4|-------------------------------------------------------
5|-------------------------------------------------------
6|-------------------------------------------------------

La vida me puso junto a ti
Nunca pude predecir,
 me convertiría en tu pasado...
1|------------------------------------------------------
2|-------------------6---8h6----------------------------
3|-----------------7---7-----5--5/7--7/9--9/7-----------
4|------------------------------------------------------
5|------------------------------------------------------
6|------------------------------------------------------

--Coro--
Te fuiste de aquí encontraste otra vida te fuiste de aquí
1|-0---0-----------------------------------------------
2|---1----------3-----------------------1------1--0----
3|-------------------------------------------2---------
4|---------3/5-----------------------------2-----------
5|-----------------------------------------------------
6|-----------------------------------------------------

enterraste la mía
Aunque no estés yo sigo respirando aquel amor...
1|------------------------------------------------------
2|-------------1---1---------------------1---------1--3-
3|-------------------------------------0---------0------
4|---------------2---2h3-2-----------2---------2--------
5|------------------------------------------------------
6|------------------------------------------------------

Te fuiste de aquí descubriste otros brazos
1|-0--0-------------------------------------------------
2|--------------3-----------------------1------1--0-----
3|-------------------------------------------2----------
4|---------3/5-----------------------------2------------
5|------------------------------------------------------
6|------------------------------------------------------
 Borraste mis besos me hiciste
 pedazos y duele ver que le entregaste a otro el corazón
1|------------------------------------------------------
2|---1---1---------1--1-----1------3---------------------
3|----------------------0------------------------------
4|-----2---2h3-2-------2------2/4-----------------------
5|------------------------------------------------------
6|------------------------------------------------------

Intro:                                Rift
                                       C
1|-------------------------------------0--------
2|-------------------------------------1--------
3|----5-7--7/9--7/5--2-2h3h2h0---------0--------
4|-------------------------------------2--------
5|-------------------------------------3--------
6|----------------------------------------------

--Versos--
Te fuiste          Quedaron
de aquí todo       las huellas de nuestro amor, no
en silencio
1|-------------------------------------------------------
2|-------------------------------------------------------
3|------5---5h7-7/9-------7--8h7/5-----------------------
4|--3/5---5----------------------------------------------
5|-------------------------------------------------------
6|-------------------------------------------------------

Sueño que te abrazo una vez más
Me despierto y ya no estás
1|-------------------------------10--12h10-------------
2|------------------------11--13-----------13h11-------
3|------------------------------------------------14---
4|-----------------------------------------------------
5|-----------------------------------------------------
6|-----------------------------------------------------

Me estoy ahogando
 en el vacío no!...
1|-----------------------------------------------------
2|-----------------------------------------------------
3|-------5/7--7/9--8h7-----5---------------------------
4|---------------------10h9----------------------------
5|-----------------------------------------------------
6|-----------------------------------------------------

--Coro--
Te fuiste de aquí encontraste otra vida, te fuiste de aquí
1|-----------------------------------------------------
2|----------------3-----------------1-----1-0----------
3|--------------------------------------2--------------
4|------------3/5---------------------2----------------
5|-----------------------------------------------------
6|-----------------------------------------------------

enterraste
la mía aunque no estés yo sigo respirando aquel amor
1|------------------------------------------------------
2|-1---1--------1--1-----1------------3h4-4-1-3h1-----1-
3|---------------------0--------------------------4/2---
4|---2---2h3-2-------2----------------------------------
5|------------------------------------------------------
6|------------------------------------------------------

Te fuiste de aquí descubriste otros brazos
Borraste mis besos me hiciste pedazos
1|----------------------------------------------1-0-----
2|----------3/5--3--5~------------------1-1---1---------
3|--------2-------------------------4/2-----2-----------
4|-------------------------7h5---5----------------------
5|-----------------------7-----7------------------------
6|------------------------------------------------------

Y duele ver que le entregaste a otro el corazón...
1|-------------------------------------------
2|-----------1-----1--3----------------------
3|---------------2---------------------------
4|-------------2-----------------------------
5|-------------------------------------------
6|-------------------------------------------

--Puente--
      Y aun siento en el aire  me acaricia tu voz
1|--------------------------------------------------0----
2|-5--5/8--8--8/5--5-1-1---5--5/8--8--8/5--5-0-1---1-1---
3|-------------------------------------------------------
4|-------------------------------------------------------
5|-------------------------------------------------------
6|-------------------------------------------------------

me robaste la luna, el cielo y las estrellas...
1|----0--------------------------------------------------
2|--1---1--------1-----------------------1--1/3----------
3|-----------------3/5-----------------------------------
4|---------2h3-2-------------------2h3-2-----------------
5|-------------------------------------------------------
6|-------------------------------------------------------
--Coro--
Te fuiste de aquí
encontraste otra vida
Te fuiste de aquí enterraste
la mía aunque no estés yo sigo respirando aquel amor

1|------------------------------------------------------
2|-----------------1-----1------------3h4-4-1-3h1-----1-
3|---------------------0--------------------------4/2---
4|-------------------2----------------------------------
5|------------------------------------------------------
6|------------------------------------------------------

Te fuiste de aquí descubriste otros brazos Borraste mis
                               besos me hiciste pedazos
1|-------------------------------------------------1-0-------
2|----------3/5--3--5~---------------------1-1---1-----------
3|--------2----------------------------4/2-----2--------5/3--
4|-------------------------7h5---5h7/9-----------------------
5|-----------------------7-----7-----------------------------
6|-----------------------------------------------------------
-
  Y duele ver que le entregaste a otro
1|--------------------------------------------------------
2|-----------1--------3-----------------------------------
3|--------------------------------------------------------
4|-----4h2-4------3/5-------------------------------------
5|--------------------------------------------------------
6|--------------------------------------------------------

el corazón             Oh no    Le entregaste a otro el corazón...
                                         C
1|----------12------------10--------------------8----8---
2|--------13--13--------12--12------------------8----8---
3|------12-------------11-------------------9--------9---
4|--------------------------------------------10-----10--
5|----------------------------------------10---------10--
6|---------------------------------------8-----------8---

            
            
Suggest correction
Creating personal tab
Creating personal tab
You can edit any tab online and save it as your Personal.

You can edit, replace or remove any tab part or add personal notes – all changes will be seen only by you.

Personal tabs can be accessed anytime from any device, even offline.
Learn more »
Give kudos to tab author, rate the tab!
1 2 3 4 5
comments
print report bad tab
guest
Wanna post a correction for this tab? Suggest correction