Oops, an error
Loading. Please wait.

Latinoamérica tab

55 views 3 this week
no commentswrite comment
1 2 3 4 5
3 more votes to show rating
add to favorites
×
Save as Personal and add changes to this tab that will be seen only by you. Learn more ›
×
You can save this tab as Personal to edit and correct it or add notes. All changes will be seen only by you. Learn more »
launch autoscroll
font size
0
reset
how to read this tab
guitar tuner
edit
Autoscroll
slow
fast
+/-
esc
set tempo
stop
INTRO:

e|-------------------------|-----------------------------|
B|-----------------3-------|-----------------3-----3-----|
G|--4--4--4--4--2-----2----|--4--4--4--4--2-----2-----2--|       x 2
D|--4--4--4----------------|--4--4--4--------------------|
A|--2--2--2----------------|--2--2--2--------------------|
E|-------------------------|-----------------------------|


e|-----------------------|-------------------------------|
B|-----------------------|-------------------------------|
G|--4-4-4--4------7------|--4-4-4--4------7-----7--------|       x 2
D|--4-4-4--2---7--7--7---|--4-4-4--4---7--7--7--7--7-----|
A|--2-2-2--2---7--5--7---|--2-2-2--2---7--5--7--5--7-----|
E|-------------5-----5---|-------------5-----5-----5-----|


Esa gente k escrutaba el cielo
Y no comprendía al invasor

e|-------------------|--------------------|
B|-------------------|--------------------|
G|--4-4-4----7-7-7---|--------------------|       
D|--4-4-4----7-7-7---|--7-7-7----5-5-5----|
A|--2-2-2----5-5-5---|--7-7-7----5-5-5----|
E|-------------------|--5-5-5----3-3-3----|


Latinoamerica, alza siempre tu voz
No puedes olvidar, no cabe la resignación...


e|-------------------|--------------------|
B|-------------------|--------------------|
G|--7-7-7-7--4-4-4-4-|--------------------|       
D|--7-7-7-7--4-4-4-4-|--5-5-5-5--7-7-7-7--|
A|--5-5-5-5--2-2-2-2-|--5-5-5-5--7-7-7-7--|
E|-------------------|--3-3-3-3--5-5-5-5--|

Su mirada ingenua

e|-----------| 
B|-----------| 
G|--4--4--4--|   B (escucha y las rasquetadas qeu quieras)   
D|--4--4--4--|
A|--2--2--2--|
E|-----------|

Sus puertas abiertas

e|-----------|
B|-----------|
G|--7-7-7-7--|    D ( // )   
D|--7-7-7-7--|
A|--5-5-5-5--|
E|-----------|

Su paciencia, su extrema fragilidad

e|-----------|----------|
B|-----------|----------|
G|-----------|----------|       
D|-5-5-5-5---|-7-7-7-7--|   A   G   (rascale las veces que escuches.)
A|-5-5-5-5---|-7-7-7-7--|
E|-3-3-3-3---|-5-5-5-5--|

Su dulce palabra 

e|-----------| 
B|-----------| 
G|--4--4--4--|   B (escucha y las rasquetadas qeu quieras)   
D|--4--4--4--|
A|--2--2--2--|
E|-----------|

Su ancestral cultura

e|-----------|
B|-----------|
G|--7-7-7-7--|    D ( // )   
D|--7-7-7-7--|
A|--5-5-5-5--|
E|-----------|

Su conciencia , su tensa contradicción

e|-----------|----------|
B|-----------|----------|
G|-----------|----------|       
D|-5-5-5-5---|-7-7-7-7--|   A   G   (rascale las veces que escuches.)
A|-5-5-5-5---|-7-7-7-7--|
E|-3-3-3-3---|-5-5-5-5--|


solo de guitarra... (toca el intro...  B A D G)

final:

e|------------------------|
B|--------3---------------|
G|--4--2-----2--3--4-4-4--|
D|-----------------4-4-4--|
A|-----------------2-2-2--|
E|------------------------|

            
            
Suggest correction
Creating personal tab
Creating personal tab
You can edit any tab online and save it as your Personal.

You can edit, replace or remove any tab part or add personal notes – all changes will be seen only by you.

Personal tabs can be accessed anytime from any device, even offline.
Learn more »
Give kudos to tab author, rate the tab!
1 2 3 4 5
comments
print report bad tab
guest
Wanna post a correction for this tab? Suggest correction