Oops, an error
Loading. Please wait.

Si Estas Tú tab

13 views 1 this week
no commentswrite comment
1 2 3 4 5
3 more votes to show rating
add to favorites
×
Save as Personal and add changes to this tab that will be seen only by you. Learn more ›
×
You can save this tab as Personal to edit and correct it or add notes. All changes will be seen only by you. Learn more »
launch autoscroll
font size
0
reset
how to read this tab
guitar tuner
edit
Autoscroll
slow
fast
+/-
esc
set tempo
stop
Arpegio de la estrofa:

     ^
E||--1-------0-----------|--0-------------------|--1-------------------|
B||--3------------3------|--3-------3----1------|--3-------3-----------|
G||--2-------------------|--0-------------------|--3------------1------|
D||--0----0--------------|--2-------------------|--3----3--------------|
A||----------------------|--3----0--------------|--1-------------------|
E||----------------------|----------------------|----------------------|


----------------1--------|-----------0----0--------|
-------------------1-----|-----------1-------1-----|
-----------2----------2--|-----2----------------2--|
--------3----------------|--------2----------------|
-----3-------------------|--0----------------------|
--1----------------------|-------------------------|


                                                     ^
----------1----1--------|-----------0----0--------|--0-------0----0-------|
----------3-------3-----|-----------3-------3-----|--1--------------------|
----------3----------3--|-----4-----4----------4--|--0----0----------0----|
-------3----------------|--------3----------------|--2--------------------|
--1---------------------|--2----------------------|--3--------------------|
------------------------|-------------------------|-----------------------|


  Cadd9        Bm/5-
e|----       e|----
b|-3--       b|-3--
g|-0--       g|-4--
d|-2--       d|-3--
a|-3--       a|-2--
E|----       E|----

Intro: Dm  Cadd9  A#  F  Am A#  Bm/5-  C

Dm        Cadd9         A#        F
Cuando percibes que el tiempo se va
Am         A#          Bm/5-    C
Y llega el quiero y no puedo evitar
Dm         Am      A#        F
Vislumbras algo cercano al final
Am      A#        Bm/5-  C
Y te preguntas si te dolerá.


Dm          Cadd9   A#     F
No sé si el mundo camina peor
Am        A#       Bm/5-  C
Pero es seguro que reventará
Dm         Cadd9     A#           F
Siempre buscando una mágica solución
Am         A#       Bm/5-  C
Y adrede ignoras la debilidad.


Estribillo (palm mute):

G5      A#5   D5     C5            G5
   No importa ver su faz, si estás tú.
       A#5  D5   C5             G5
   Soportas lo peor, si estás tú.
       A#5  D5   C5            F5
   Aguantas el tirón, si estás tú...
         D5
Si estás tú...
         C5
Si estás tú...
         A#5
Si estás tú...
                    F5
No importa si estás tú.
         D5
Si estás tú...
         C5
Si estás tú...
         A#5
Si estás tú...


Puente: Dm  Cadd9  A#  F  Am A#  Bm/5-  C


Si en tu mirada me invento la luz
Si tiembla el mundo cuando dices tú,
Si tu sonrisa me impide temer
Si la ansiedad va muriendo en tu piel.


Estribillo:

Me tengo que aguantar si estás tú.
No importa, me da igual si estás tú.
Me voy a rebelar si estás tú...
SI estás tú...
Si estás tú...
SI estás tú...
No importa si estás tú...
SI estás tú...
Si estás tú?
SI estás tú?
No importa si estás tú...
SI estás tú...
Si estás tú...
Si estás tú no importa nada
Si estás tú...
SI estás tú...
Si estás tú no importa nada
SI estás tú...
Si estás tú...

-----------------------------------------------------------
Saludos desde chile!

            
            
Suggest correction
Creating personal tab
Creating personal tab
You can edit any tab online and save it as your Personal.

You can edit, replace or remove any tab part or add personal notes – all changes will be seen only by you.

Personal tabs can be accessed anytime from any device, even offline.
Learn more »
Give kudos to tab author, rate the tab!
1 2 3 4 5
comments
print report bad tab
guest
Wanna post a correction for this tab? Suggest correction