Oops, an error
Loading. Please wait.

Tu Reinarás bass

by Renacer
21 views 1 this week
no commentswrite comment
1 2 3 4 5
3 more votes to show rating
add to favorites
×
Save as Personal and add changes to this tab that will be seen only by you. Learn more ›
×
You can save this tab as Personal to edit and correct it or add notes. All changes will be seen only by you. Learn more »
launch autoscroll
font size
0
reset
guitar tuner
edit
Autoscroll
slow
fast
+/-
esc
set tempo
stop
~ = dejar sonando
/ = slide
0 = cuerda al aire (sin pisar)

Intro y estrofa 1 (sólo guitarra y voz)
C     Am       C

C                                 Am
Creo que, algo va a pasar, cuando tú vengas a este lugar

C                      Am
Tú amor, tu amor reinará

Estrofa 2
Creo que, algo va a pasar, cuando tú, vengas a este lugar
G|--------------------------------------------------------
D|--------------------------------------------------------
A|----3~--------------------------------------------------
E|--------------------1~-----1-3-5~------------3~---------

Sólo tú,           Jesús tienes el control
G|--------------------------------------------------------
D|--------------------------------------------------------
A|-0-1-3~-------------------------------------------------
E|----------------1~----------5~------------3~------------

  Coro
Puedo ver?
G|---------------------------------------
D|---------------------------------------
A|-------------------33333333------------   x3
E|-55555555-11111111----------33333333---


Puente
G|-------------------------------------------------------
D|-------------------------------------------------------
A|-3~----------------------3-8-10-15~--12~-12/3~--3/15~--
E|-----1~----1-3-5~----3~--------------------------------

  Puedo sentir?
G|--------------------------------------------------------------
D|--------------------------------------------------------------
A|-15(x8)-8(x8)-12(x8veces)-10(8 veces)-12(x8)-10(x8)-15(x16)---
E|--------------------------------------------------------------

G|-------------------------------------------
D|-------------------------------------------
A|-33333333----------------------------------
E|----------11111111-55555555-15151515-3333--

  Puedo sentir tu presencia?
G|----------------------------------------------------------
D|----------------------------------------------------------
A|-33333333----------------------------3-3-3~--------3/15~--
E|----------11111111-55555555-33333333--------5-5-5~--------

Bien, ahora ya está corregida.
Califiquen, cualquier duda comenten o envíen un correo
 a richardrumgarcia@ Dios los Bendiga.

            
            
Suggest correction
Creating personal tab
Creating personal tab
You can edit any tab online and save it as your Personal.

You can edit, replace or remove any tab part or add personal notes – all changes will be seen only by you.

Personal tabs can be accessed anytime from any device, even offline.
Learn more »
Give kudos to tab author, rate the tab!
1 2 3 4 5
comments
print report bad tab
guest
Wanna post a correction for this tab? Suggest correction