Oops, an error
Loading. Please wait.

Una Promesa tab

by René
7 views 1 this week
no commentswrite comment
1 2 3 4 5
3 more votes to show rating
add to favorites
×
Save as Personal and add changes to this tab that will be seen only by you. Learn more ›
×
You can save this tab as Personal to edit and correct it or add notes. All changes will be seen only by you. Learn more »
launch autoscroll
font size
0
reset
how to read this tab
guitar tuner
edit
Autoscroll
slow
fast
+/-
esc
set tempo
stop
Intro es un poco suave?
SE LA DEDICO A MI AMOR, mi nena gracias por amarme tanto
te adoro cuando veas esta canción acuérdate de mi.

    D               B                 A           Em
E  -2-----2-3-0-2------------------------------------
B  -----------------3---------2-3-2---------------3--
G  -2--2------------------------------2-2------------
D  ------------------------------------------2-4-5---
A  --------------------------------------------------
E  --------------------------------------------------


         G              A          D
E ------------------------------------------
B ------------------------------------------
G ------------------------------------------
D -------4----5-4-2- --------4-2-0----------
A ------------------------------------------
E ------------------------------------------


      D       Bm               Em
esto que veo yo lo cual se desfogo
      A      G        D
me deja solo y sin tu amor
                 Bm              Em
me encuentro como que soy hombre de papel
     G           A     D
escritas en mi coooooorazon
            Bm     Em      A
las palabras que no olvidareeeeeeee
   G            A
te amooooooooooo a tiiiii


(coro)
--------------------------------------
     D                    Bm
en estos brazos te quiero a ti
       Em              G         A
te amo tanto mas de lo que puedo decir
     D                   Bm         Em
en estos labios te espera a ti una promesa
          G             A      D
te doy mi mundo entero a tiiiiii

----------------------------------------

¡!!!!Igual Que Arriba!!!!!!!

no puedo soportar este dolor

que siento en mi corazón

y no entiendo yo como seguir

sabiendo la distancia aquí

pero ya yo se que no te olvidare

te amo a ti

¡coro!
-------------------------


-------------------------
  C   G    D         G
eres el aire eres mi soooool
   G       F#m        B
todo lo que eres en la vida
E  Cm  A   F#m   B
yeEEEEEEYYYYY

Incremente un tono
   E                          Cm
en estos brazos teeeeee espera aqui
    A           F#m          B
una promesa te doy mi mundo
 E   Cm    A   F#m    B
entero a ti

FINAL

    E              Cm                  B          F#m
E  -4-----4-5-2-4------------------------------------
B  -----------------5---------4-5-4---------------5--
G  -4--4------------------------------4-4------------
D  ------------------------------------------4-6-7---
A  --------------------------------------------------
E  --------------------------------------------------


                A             B       E
E ------------------------------------------
B ------------------------------------------
G ------------------------------------------
D -------6----7-6-4----------6-4-2----------
A ------------------------------------------
E ------------------------------------------


LO ULTIMO DE ESTA PARTE CAMBIA PERO ME DIO
PEREZA HACERLO ADIOS QUE LES GUSTE CORRECIONES?
SOLO SAQUENLO ES FACIL

            
            
Suggest correction
Creating personal tab
Creating personal tab
You can edit any tab online and save it as your Personal.

You can edit, replace or remove any tab part or add personal notes – all changes will be seen only by you.

Personal tabs can be accessed anytime from any device, even offline.
Learn more »
Give kudos to tab author, rate the tab!
1 2 3 4 5
comments
print report bad tab
guest
Wanna post a correction for this tab? Suggest correction