Oops, an error
Loading. Please wait.

Chica Rica tab

41 views 1 this week
no commentswrite comment
1 2 3 4 5
3 more votes to show rating
add to favorites
×
Save as Personal and add changes to this tab that will be seen only by you. Learn more ›
×
You can save this tab as Personal to edit and correct it or add notes. All changes will be seen only by you. Learn more »
launch autoscroll
font size
0
reset
how to read this tab
guitar tuner
edit
Autoscroll
slow
fast
+/-
esc
set tempo
stop
Hola. Me he fijado que la transcripción hecha por
Felipe Kohl Zapata estaba un semitono bajo, por lo
que me he dado el trabajo de corregir la tablatura
hecho por él y agregar el solo de teclado a la misma.
Espero que les guste.

    RE#              DOm              FAm
e|------------------------------------------------------|
B|------------------------------------------------------|
G|------------------------------------------------------|
D|---------5-8-5--------------5-0------3-3--3-6---6-3---|
A|--6-6--6-------6--3-3--3--6----2----------------------|
E|------------------------------------------------------|

    LA#
e|-----------------------|
B|-----------------------|
G|-----------------------|   con wah y distorsión media
D|-----------------------|
A|---------5-8---8-6-5---|
E|--6-6------------------|


Intro del teclado

  RE#        DOm         FAm            LA#---->
e|----------------------------------------------|
B|--6-6--4--------------------------------------|
G|-------------5-5--3---------------------------|
D|--------------------------3-3-1-4-3-1---------|
A|--------------------------------------3-------|
E|----------------------------------------------|

<---- LA#
e|-----------------------|
B|-----------------------|
G|-----------------------|
D|--------343--1---------|
A|---1---1---3-----------|
E|-----------------------|


   RE#                  DOm
Mi chica, te mueves, sensual y sonrojada
   FAm                  LA#
No sabes si mirar, pero quieres taquillar.
RE#             DOm
Luces bikinis y minis de colores
  FAm                    LA#              SOL
Soñando con mil coches y chicos para ir a bailar.
 FAm                 SOL    LA#
(Chicos para ir a bailar)

D|--8-8--6-6--5-5--------|
A|-----------------8-8---|


RE#        DOm
Vas, chica rica,
SOL#                      LA#
Viendo si algo enganchas, viendo si algo hechizas
RE#        DOm
Vas, chica rica,
SOL#              LA#
Tienta tu figura, tienta tu sonrisa

(Aquí va lo de la intro)
  RE#     DOm    FAm    LA#
Y matas, matas, matas, matas


Piensa la gente que eres algo loca
Que estás fuera de foco, que sólo eres moda.
Pero tú ganas, eres la única guerra
Que nos gusta a los hombres
Si nos quieren matar por amor.
(Si nos quieren matar por amor)

Vas, chica rica,
Viendo si algo enganchas, viendo si algo hechizas
Vas, chica rica,
Tienta tu figura, tienta tu sonrisa
Y matas, matas, matas, matas

Vas, chica rica,
Viendo si algo enganchas, viendo si algo hechizas
Vas, chica rica,
Tienta tu figura, tienta tu sonrisa

            
            
Suggest correction
Creating personal tab
Creating personal tab
You can edit any tab online and save it as your Personal.

You can edit, replace or remove any tab part or add personal notes – all changes will be seen only by you.

Personal tabs can be accessed anytime from any device, even offline.
Learn more »
Give kudos to tab author, rate the tab!
1 2 3 4 5
comments
print report bad tab
guest
Wanna post a correction for this tab? Suggest correction