Oops, an error
Loading. Please wait.

El Guacho José tab

59 views 1 this week
no commentswrite comment
1 2 3 4 5
3 more votes to show rating
add to favorites
×
Save as Personal and add changes to this tab that will be seen only by you. Learn more ›
×
You can save this tab as Personal to edit and correct it or add notes. All changes will be seen only by you. Learn more »
launch autoscroll
font size
0
reset
how to read this tab
guitar tuner
edit
Autoscroll
slow
fast
+/-
esc
set tempo
stop
esta es la canción del guacho jose en afinación 3ª alta
tienen que afinar la guitarra por esta afinación
aquí esta para los que no se la saben
1 = DO#
2 = LA
3 = FA#
4 = RE
5 = LA
6 = RE

se usan solo dos acordes, que asi son

  RE     LA7
1  1      0
2  0      0
3  0      1
4  0      2
5  0      0
6  0      0

y con este punteo empieza la canción
cejillo 2º espacio

  RE                                   LA7
1-1h0-01-1-1-1h0-01-1-1--1h0-01-0-0---------------------
2----2----------2-----------2----2-2------024-44-024-44-
3------------------------------------0-1----------------

1------------------   2 veces
2-420-00-2-0-------
3------------10----
4---------------00-

RE LA7 RE LA7 RE

RE                                            LA7
Jamás conocí a mi madre, mi padre no se quien fue
                                           RE (2 veces)
por eso todos me dicen que soy el guacho josé

punteo intro

(todos los versos siguen bajo los mismos acordes del primero)
yo duermo en los matorrales, o debajo de un peral
echo las penas al hombro, cuando alguen me trata mal. (2 veces)

punteo intro

cuando llegara ese dia, que de la tierra me iré
escriban en un madero se murió en guacho josé (2 veces)

RE                                   LA7
1-1h0-01-1-1-1h0-01-1-1--1h0-01-0-0---------------------
2----2----------2-----------2----2-2------024-44-024-44-
3------------------------------------0-1----------------
              RE                                      LA7
1-------------------1h0-01-1-1-1h0-01-1-1--1h0-010-0----
2-420-00-2-0-----------2----------2-----------2---2-2---
3------------10--------------------------------------01-
4---------------00--------------------------------------


1--------------------------1-0-1111--
2-024-44-024-44-420-000-2-4--0-0000--
3----------------------------1-0000--
4----------------------------2-0000--
5----------------------------0-0000--
6----------------------------0-0000--

espero que les guste, saludos!

            
            
Suggest correction
Creating personal tab
Creating personal tab
You can edit any tab online and save it as your Personal.

You can edit, replace or remove any tab part or add personal notes – all changes will be seen only by you.

Personal tabs can be accessed anytime from any device, even offline.
Learn more »
Give kudos to tab author, rate the tab!
1 2 3 4 5
comments
print report bad tab
guest
Wanna post a correction for this tab? Suggest correction