Oops, an error
Loading. Please wait.

Frutos Del País tab

58 views 1 this week
no commentswrite comment
1 2 3 4 5
3 more votes to show rating
add to favorites
×
Save as Personal and add changes to this tab that will be seen only by you. Learn more ›
×
You can save this tab as Personal to edit and correct it or add notes. All changes will be seen only by you. Learn more »
launch autoscroll
font size
0
reset
how to read this tab
guitar tuner
edit
Autoscroll
slow
fast
+/-
esc
set tempo
stop
aquí les dejo la canción de frutos del país,
desde la primera guitarra acústica hasta la
primera guitarra eléctrica, la segunda aún no
la he sacado bien, por eso luego la subiré.

(la canción va con acordes valseados)
1ª estrofa, guitarra acústica

 LA             MI              LA                         MI
1------5--4-------------4---------------9h0-7h0-545--------10h0-
2-57545----75---5------5---75---5--57545-------------57545------
3------------67-----467------764--------------------------------
4------------------7--------------------------------------------
5---------------------------------------------------------------
6---------------------------------------------------------------

                                           LA
1-9h0-757--------16h0-14h0-11h0-10h0-7h0-789--8-7/5-5---
2---------57545-----------------------------------------
3-------------------------------------------------------
4-------------------------------------------------------
5-------------------------------------------------------
6-------------------------------------------------------

2ª estrofa, guitarra acústica
(en la parte donde se tocan 2 cuerdas a la ves, el punteo de la
primera cuerda representa lo que toca la guitarra acústica, y lo
de la segunda cuerda representa lo que hace la guitarra eléctrica
en canal limpio; al querer tocar el tema con dos guitarras, cada
guitarra hace lo escrito en una sola de las cuerdas, pero en caso
de querer tocar el tema con una sola guitarra, bien se puede tocar
tal como está en la tablatura)

 LA                         RE               LA             MI
1------------------------2--5-5/45-5/45-542-234-420-------------
2-0/5-5/35-5/35-5-32-0235---7-7/57-7/57-753-345-532---------45--
3-------------------------------------------------------467-----
4-----------------------------------------------------7---------
5---------------------------------------------------------------
6---------------------------------------------------------------

                   LA                 RE               LA
1-------------------9-9/7-9--9/7-9--975-7-7/57-7/57-754-432-220-
2-55-54------------1010/910-10/910-1097-9-9/79-9/79-975-543-332-
3------764------------------------------------------------------
4---------764---------------------------------------------------
5------------754------------------------------------------------
6---------------75----------------------------------------------

         MI             LA
1--------------------------
2-----45-55-54-------------
3--467--------764----------
4-7--------------764-------
5-------------------754----
6----------------------75--

3ª estrofa, guitarra eléctrica canal limpio

 LA              MI                  LA
1------5----------------------------------  2 veces
2-57545---57656765-57545-7/9-7/5----------
3-------------------------------76-4/6----
4-----------------------------------------
5-----------------------------------------
6-----------------------------------------


4ª estrofa, guitarra eléctrica overdrive
(en el bend se sube medio tono, en caso de tener cuerdas de nylon,
 el bend puede reempazarse por el espacio 10)

 LA              MI                LA                    MI
1------5---5--------79-9brbr7-9b-979------54--5h4--75454-4-79--
2-----5--75--75-7/9----------------------5---7----7-----7------
3---46--------------------------------467----------------------
4-67---------------------------------7-------------------------
5--------------------------------------------------------------
6--------------------------------------------------------------

                 LA
1-9b-97-14-12-10-9-
2------------------
3------------------
4------------------
5------------------
6------------------

se repite la canción

puede que hallan algunas notas erróneas en la tablatura,
y en elgunas partes no pude reconocer los acordes que utilizaban,
pero no se notan mucho,igual suenan bien.
Suggest correction
Creating personal tab
Creating personal tab
You can edit any tab online and save it as your Personal.

You can edit, replace or remove any tab part or add personal notes – all changes will be seen only by you.

Personal tabs can be accessed anytime from any device, even offline.
Learn more »
Give kudos to tab author, rate the tab!
1 2 3 4 5
comments
print report bad tab
guest
Wanna post a correction for this tab? Suggest correction