Oops, an error
Loading. Please wait.

El Ojo Del Huracán tab

version 2
version 2

Whole song

79 views 1 this week
no commentswrite comment
1 2 3 4 5
3 more votes to show rating
add to favorites
×
Save as Personal and add changes to this tab that will be seen only by you. Learn more ›
×
You can save this tab as Personal to edit and correct it or add notes. All changes will be seen only by you. Learn more »
launch autoscroll
font size
0
reset
how to read this tab
guitar tuner
edit
Autoscroll
slow
fast
+/-
esc
set tempo
stop
INTRO:

             RE  LA  SI
e|-------------------------|-----------------------------
B|-------------------------|-----------------------------
G|-------------2-2---------|-----------------------------
D|-------------0-0-2-2-4---|4-4-4------------------------
A|-2p1p0-2p1p0-----0-0-2---|2-2-2--2p1p0-2p1p0-2p1p0-----
E|-------------------------|-----------------------------

Repite 4 veces

luego Fa# y Sol (son seguillas las 2)
y despues de sol

e|-----------------------------------------------
B|----0------------------------------------------
G|----0------------------------------------------
D|-------------2p0--------4--2-----4-6-7---------
A|-4-------2-------2p0----2--0-----2-4-5---------
E|-2-------3-------------------------------------


D             B
  Cada cual pisa como quiere
G               D
  y tiene su razón de ser
D                     B
  se sabe que el que carga con piedras
G                  D
  dificil que se pueda mover.

A
  Hazlas rodar los caminos de tierra
B
  son lo mejor que tendran
A
  Cada cual pisa como quiere, pero

ESTRIBILLO
D  A B                     D  A B
       Por mas que quieras,        dificil es llegar
D  A B                     D  A B                   F# G B A
       no existe ciencia,         mucho puede pesar.


D                    B
  Quisieras que por fin tu ave
G                 D
  la tormenta pudiera cruzar.
D                  B
  Quisieras ver el sol mañana
G                  D
  pero esa sombra sigue ahí detras.

A
  Echa a volar los caminos del viento
B
  son lo mejor que tendrás
A
  solo tus alas precisa al intento, pero

ESTRIBILLO
D  A B                     D  A B
       Por mas que quieras,       dificil es llegar
D   A B                    D  A B                   F# G B A
        no existe ciencia,        mucho puede pesar.


fijense, lo trnacribi como pude las notas son, cualquier
cosa maden mails a genaronm_09@

|-----------------------------------
|-----------------------------------
|---4p2p0-5p4p0-6p5p0-7p6p0--7~~----
|-2---------------------------------
|-----------------------------------
|-----------------------------------

------------------------------------
----10-10-10-10--10--10-------------
--9----9b-9b-9b--9b--9br-7-7--------
------------------------------------
------------------------------------
------------------------------------

------------------------------------------
------------------------------------------
------------------------------------------
-9p7-9p7----------------9p7-9-------------
----------9-7/5----5-7--------------------
-----------------7------------------------

----------------------------------------
----------------10-10-10--12-12-12------
-9br-7-7~~---11-------------------------
----------------------------------------
----------------------------------------
----------------------------------------

--------------------------------------------------
-7~-7-7-7-8p7--------10-10-10-10------------------
---------------9p7-9b---9b-9b-9b-9brp7-9-9~~------
--------------------------------------------------
--------------------------------------------------
--------------------------------------------------

----------------17-------------17--------
----15-17-17b~~----17brp15-17b----17b----
-16--------------------------------------
-----------------------------------------
-----------------------------------------
-----------------------------------------

---------------------------------------------
-17b-17b-17b-17b-15-15-15---------15-15-15---
--------------------------16---16----16-16---
---------------------------------------------
---------------------------------------------
---------------------------------------------

-------------------------------
-14-14-14--12-12-12--10--10----
-------------------------------
-------------------------------
-------------------------------
-------------------------------

----------------------------------------------
-7~~-7-8p7-------10-10-10-10-10---------------
-----------9p7-9b---9b-9b-9b-9brp7-9-9~~------
----------------------------------------------
----------------------------------------------
----------------------------------------------


aca hace un tremolo
----------------------------7-7-7-9-9-9-10-10-10-12-12-12--
-------7-7-7-8-8-8-10-10-10--------------------------------
-9-9-9-----------------------------------------------------
-----------------------------------------------------------
-----------------------------------------------------------
-----------------------------------------------------------
intro x4

F#
  Puede ser que subido a ese cielo
G
  conozcas el ojo del huracán
D
  y querras aferrarte a las piedras
A
  pero ya nada te podrá sujetar

B
  Cada cual pisa como quiere
A
  y solo tus alas precisa el intento.

ESTRIBILLO
D  A B                     D  A B
       Por mas que quieras,       dificil es llegar
D  A B                    D  A B                    F# G B A
       no existe ciencia,        mucho puede pesar.
SOLO FINAL
F# G B A
(D B G D) x 2
(D  B A) x 4

final
|------------------------------------
|------------------------------------
|------------------------------------
|---------------------------7--------
|-2p1p0-2p1p0-2p1p0-2p1p0---5--------
|------------------------------------

            
            
Suggest correction
Creating personal tab
Creating personal tab
You can edit any tab online and save it as your Personal.

You can edit, replace or remove any tab part or add personal notes – all changes will be seen only by you.

Personal tabs can be accessed anytime from any device, even offline.
Learn more »
Give kudos to tab author, rate the tab!
1 2 3 4 5
comments
print report bad tab
guest
Wanna post a correction for this tab? Suggest correction