Oops, an error
Loading. Please wait.

El Ojo Del Huracán bass

38 views 1 this week
no commentswrite comment
1 2 3 4 5
3 more votes to show rating
add to favorites
×
Save as Personal and add changes to this tab that will be seen only by you. Learn more ›
×
You can save this tab as Personal to edit and correct it or add notes. All changes will be seen only by you. Learn more »
launch autoscroll
font size
0
reset
guitar tuner
edit
Autoscroll
slow
fast
+/-
esc
set tempo
stop
Bueno, esta cancion la saque de una version en vivo porque
se me rayo el cd, pero esa es otra historia...asique es seguro
que tiene algun que otro error, por eso les pido piedad jeje...
Pero aclaro que lo adapte para que quede masomenos con la trans.
de guitarra que habia. Aca va...

INTRO:
1|--------------------------------|
2|--------------------------------| X 3
3|--5-5-----------10h9h7-10h9h7---|
4|------5-5-7-7-7-----------------|

1|-------------------------------------------|
2|-------------------------------------------|
3|------------------2-0-22-22-0---0-2-4-5----|
4|-2--2-2--3--3-3----------------------------|

VERSO:
1|--------------------------------------------------|
2|--------------------------------------------------| X 2
3|-5--5-5-0-5-0--2--2-2-0-2-0------------3-5--5-5---|
4|-----------------------------3--3-3--5----------5-|

PRE-ESTRIBILLO:
1|-------------------------------------------------|
2|-------------------------------------------------|
3|-------------------------------------------------|
4|-5--5-5-5-5-5-0-5--5-5-5-5-5--7--7-7-7-7-7-7-0-5-|

1|---------------------------------|
2|---------------------------------|
3|---------------------------------|
4|-5--5-5-5-5-5-0-5--5-5-5-5-5-0-5-|

ESTRIBILLO:
1|--------------------------------|
2|--------------------------------| X 3
3|--5-5-----------10h9h7-10h9h7---|
4|------5-5-7-7-7-----------------|

1|-------------------------------------------|
2|-------------------------------------------|
3|------------------2-0-22-22-0---0-2-4-5----|
4|-2--2-2--3--3-3----------------------------|

Repite VERSO, PRE-ESTRIBILLO Y ESTRIBILLO...

SOLO: En base de VERSO, PRE-ESTRIBILLO Y ESTRIBILLO...

VERSO 2: Cuando dice "Puede ser que subas al cielo..."
1|------------------------------------------|
2|------------------------------------------|
3|---------------------5-5-5-5-5------------|
4|-2-2--2-2--3-3-3-3-3-----------5-5-5-5-5--|

 "Cada cual pisa como quiere..."
1-------------------------------------------|
2|------------------------------------------|
3|-2-2-2-2-2-2-2-2-2-2--0-0-0-0-0-0-0-0-0-0-|
4|------------------------------------------|

Repite ESTRIBILLO...

SOLO FINAL: Usa como base VERSO 2, VERSO (X 4)...

FINAL:
1|--------------------------------|
2|--------------------------------| X 3
3|--5-5-----------10h9h7-10h9h7---|
4|------5-5-7-7-7-----------------|

1|------| ___ .
2|------| |_  | | |
3|--5/--| |   | | | . . .
4|------|

En fin...eso me parece que es, seguro  tiene errores asique si

alguien
tiene alguna correccion o algo mandenmelo a

fabrcio-matias-89@
  SALUDOS ILIMITA-2 Y QUE EL ROCK LOS ACOMPAÑE...
Suggest correction
Creating personal tab
Creating personal tab
You can edit any tab online and save it as your Personal.

You can edit, replace or remove any tab part or add personal notes – all changes will be seen only by you.

Personal tabs can be accessed anytime from any device, even offline.
Learn more »
Give kudos to tab author, rate the tab!
1 2 3 4 5
comments
print report bad tab
guest
Wanna post a correction for this tab? Suggest correction