Oops, an error
Loading. Please wait.

Siete Van Ocho Serán tab

13 views 3 this week
no commentswrite comment
1 2 3 4 5
3 more votes to show rating
add to favorites
×
Save as Personal and add changes to this tab that will be seen only by you. Learn more ›
×
You can save this tab as Personal to edit and correct it or add notes. All changes will be seen only by you. Learn more »
launch autoscroll
font size
0
reset
how to read this tab
guitar tuner
edit
Autoscroll
slow
fast
+/-
esc
set tempo
stop
Armonizada en C

Intro
                                      C
E|--6s8--8-8------------6s8-8--------------|
B|--6s8--8-8-6----------6s8-8-6------------|
G|------------8-5--------------8-5---------|
D|----------------5----------------5-------|
A|-----------------------------------------|
E|-----------------------------------------|

C
soy muy bueno para enamorar
F                   C
pero a ti no puedo que caray
C
me he casado siete veces ya
   D7               G
y solo espero volverme a casar

C
cada chica que a mi me amo, (que me amó)
F                   C
a otro hombre no amará , (no amará)
C                      F
soy muy bueno más no puedo,
C             G    C
no te puedo enamorar.
C
siete van y ocho serán.

(Se repite desde el principio hasta no te puedo enamorar)

   C                   C                   F
E|-6s8--8-8------------6s8-8--------------11s13--13-13-13-13-13-13--|
B|-6s8--8-8-6----------6s8-8-6------------11s13--13-13-13-13-13-13--|
G|------------8-5---5----------8-5---5------------------------------|
D|----------------5----------------5--------------------------------|
A|------------------------------------------------------------------|
E|------------------------------------------------------------------|
   C                    C              G
E|-6s8--8-8-------------6s8-8-------------------------------|
B|-6s8--8-8-6-----------6s8-8-6--------6-6h8--8-8--8-8-8-8--|
G|------------8-5---5-----------8--5-8----------------------|
D|----------------5-----------------------------------------|
A|----------------------------------------------------------|
E|----------------------------------------------------------|

                         C
E|----------------------------------------------------------|
B|-----6-6h8-6---------------6------5-------------6---------|
G|-5-8-----------8--5-5--5-8---8-5--5------5--5h7---7-------|
D|-------------------------------------5-8------------------|
A|----------------------------------------------------------|
E|----------------------------------------------------------|

   F                 C       C               F        C
E|-------------6-------------8-10-12-8-10----8-------10s12--12-12-12--
B|-----6-6h8-6---8---5-5-5----------------12---10-8-------------------
G|-5-8---------------5-5-5--------------------------------------------
D|-------------------5-5-5--------------------------------------------
A|--------------------------------------------------------------------
E|--------------------------------------------------------------------

   G     C
E 10-10--8-|
B ---------|
G ---------|
D ---------|
A ---------|
E ---------|

C                         F
si, si , amamé, di porque,di porque
C             G      C  F C            G    C
no te puedo enamora-aar,  no te puedo enamorar.

Esta cancion esta bien chida, para que la saquen completa escuchen
bien la canción para que se güien en la parte del solo de la guitarra
traté de ser lo mas explicito posible pero si tienen alguna duda
haganmela saber, espero les sirva la transcripción,
nos vemos

            
            
Suggest correction
Creating personal tab
Creating personal tab
You can edit any tab online and save it as your Personal.

You can edit, replace or remove any tab part or add personal notes – all changes will be seen only by you.

Personal tabs can be accessed anytime from any device, even offline.
Learn more »
Give kudos to tab author, rate the tab!
1 2 3 4 5
comments
print report bad tab
guest
Wanna post a correction for this tab? Suggest correction