Oops, an error
Loading. Please wait.

Cómo No Voy A Verlo? tab

version 1
version 1

Whole song

by Rescate
31 views 1 this week
no commentswrite comment
1 2 3 4 5
3 more votes to show rating
add to favorites
×
Save as Personal and add changes to this tab that will be seen only by you. Learn more ›
×
You can save this tab as Personal to edit and correct it or add notes. All changes will be seen only by you. Learn more »
launch autoscroll
font size
0
reset
how to read this tab
guitar tuner
edit
Autoscroll
slow
fast
+/-
esc
set tempo
stop
Noveno Track del disco: ¡Arriba!

Riff:
     C                  G
e) |-------0-0-1-0-------------------|
B) |-1-1-3---------3-1-1-0-1-3-3-----|
G) |---------------------------------|
D) |---------------------------------|
A) |---------------------------------|
E) |---------------------------------|
     C                  G
e) |-------0-0-1-0-------------------|
B) |-1-1-3---------3-1-1-0-----------|
G) |-----------------------2-0-0-----|
D) |---------------------------------|
A) |---------------------------------|
E) |---------------------------------|

Intro: //F - C - G//  x2 C

1er Verso:
C                F             C          G
Viste lo que salio en la radio, esta mañana
C               F         C            G
Viste el tiro paso rosando, por tu ventana
C                 F      C            G
Viste living la vida loca, no estaba lejos
C                      F          C        G
Viste el barrio ya no es el mismo, dijo tu viejo.

CORO:

            F
//Como no voy
           C
Como no voy
           G
Como no voy a verlo
           F
Como no voy
          C
Como no voy
           G          C
Como no voy a verlo// Yo

2do Verso:
C                 F        C             G
Viste que lo estaba escrito, va sucediendo
C                F          C                G
Viste que lo que Juan soñara, se esta cumpliendo
Am             Em           F          G
Viste como son las promesas, para los hijos
Am              Em         F          G
Viste como pequeño al cielo, mirando fijo.

CORO:

            F
//Como no voy
           C
Como no voy
           G
Como no voy a verlo
           F
Como no voy
          C
Como no voy
           G          C
Como no voy a verlo// Yo

3er Verso:
Am             Em
 Suena la trompeta,
 F                          G
Esto no son 100 metros es una maraton hacia la meta.
Am              Em
 Suena la trompeta,
  F                        G
En el abecedario parece que llegamos a la Zeta.
Am               Em
 Suena la trompeta,
     F                 G
¿Como quieres que haga? ¿Como quieres que no me meta?
Am                  Em
 Si suena la trompeta,
    F                 G
Que ya no queda tiempo, ya no queda letra...

Riff:
     C                  G
e) |-------0-0-1-0-------------------|
B) |-1-1-3---------3-1-1-0-1-3-3-----|
G) |---------------------------------|
D) |---------------------------------|
A) |---------------------------------|
E) |---------------------------------|
     C                  G
e) |-------0-0-1-0-------------------|
B) |-1-1-3---------3-1-1-0-----------|
G) |-----------------------2-0-0-----|
D) |---------------------------------|
A) |---------------------------------|
E) |---------------------------------|

CORO:

          F
Como no voy
           C
Como no voy
           G
Como no voy a verlo
           F
Como no voy
          C
Como no voy
           G
Como no voy a verlo
Am
Yeh Yeh!
   F
Voy
           C
Como no voy
           G
Como no voy a verlo
          F
Como no voy
           C
Como no voy
          G
Como no voy a verlo
Am
Yeh Yeh!
   F
Voy
           C
Como no voy
           G
Como no voy a verlo
          F
Como no voy
           C
Como no voy
          G          C
Como no voy a verlo ¡YO!

e) |-------0-0-1-0-------------------|
B) |-1-1-3---------3-1-1-0-----1-----|
G) |-----------------------2-0-------|
D) |---------------------------------|
A) |---------------------------------|
E) |---------------------------------|

¡Espero les sirva!

            
            
Suggest correction
Creating personal tab
Creating personal tab
You can edit any tab online and save it as your Personal.

You can edit, replace or remove any tab part or add personal notes – all changes will be seen only by you.

Personal tabs can be accessed anytime from any device, even offline.
Learn more »
Give kudos to tab author, rate the tab!
1 2 3 4 5
comments
print report bad tab
guest
Wanna post a correction for this tab? Suggest correction