Oops, an error
Loading. Please wait.

Hay Algo Más tab

by Rescate
101 views 1 this week
no commentswrite comment
1 2 3 4 5
3 more votes to show rating
add to favorites
×
Save as Personal and add changes to this tab that will be seen only by you. Learn more ›
×
You can save this tab as Personal to edit and correct it or add notes. All changes will be seen only by you. Learn more »
launch autoscroll
font size
0
reset
how to read this tab
guitar tuner
edit
Autoscroll
slow
fast
+/-
esc
set tempo
stop
Sexto Track del disco: ¡Arriba!

D)|---------------------------|
A)|---------------------------|
E)|--3-2-0--------------------|

1er Verso:
Em         G
Cuando te vi
   C        G
No supe que decir
Em        G
Cuanto paso
    C               D
De aquella tarde en abril
Em    G     C        G
Disimule pero no lo logre
      Am      G
tonto, y parecer
      C        D
tonto, otra ves.

CORO:
C              G
Si quisieras hoy,
D              Em
puedes encontrarme
C             G
Si pudieras hoy,
Am                   D
suspender tu agenda solo por mi
C            G
Si pudieras hoy,
D            Em
ven sin anunciarte
C          G
Hay algo mas...
C          G
Hay algo mas...
Am               G
Que yo quiero darte

D)|---------------------------|
A)|---------------------------|
E)|--3-2-0--------------------|

2do Verso:
Em        G
Cuando te vi
    C        G
me quise disculpar
Em         G
nunca entendi
     C           D
porque me habrias de amar
Em        G
Yo lo intente
    C         G
Pero no lo logre
     Am       G
Tonto, y parecer
     C        D
Tonto, otra ves

CORO:

C              G
Si quisieras hoy,
D              Em
puedes encontrarme
C             G
Si pudieras hoy,
Am                   D
suspender tu agenda solo por mi
C            G
Si pudieras hoy,
D            Em
ven sin anunciarte
C          G
Hay algo mas...
C          G
Hay algo mas...
Am               G
Que yo quiero darte

3er Verso:
G    C     Am    Em
Debo verme tan fatal,
G          C      Am
siempre ha sido asi,
G     C      Am        Em
No te quedes en el umbral,
Am        C       D
Pasa sientate aqui,
G      C       Am       Em
Flores secas en el jardin,
G      C     Am
Solo puedo ver,
G     C      Am       Em
nunca jueges con un amor,
Am       C          D
que no quieras perder,
Am      C          D
pero aprendes despues.

CORO:

C              G
Si quisieras hoy,
D              Em
puedes encontrarme
C             G
Si pudieras hoy,
Am                   D
suspender tu agenda solo por mi
C            G
Si pudieras hoy,
D            Em
ven sin anunciarte
C          G
Hay algo mas...
C          G
Hay algo mas...
C          G
Hay mucho mas...
D              Am
Que yo quiero darte...
G                   G
Que yo puedo darte.

e)|-------------------------------------------------|
B)|-----0-3-1-0---1-0--------0-3-1-0---1-3-1-0------|
G)|-0-2---------2-----2--0-2---------2---------2----|x2
D)|-------------------------------------------------|
A)|-------------------------------------------------|
E)|-------------------------------------------------|

e)|-------------------------------3------5-----3----|(cuerda e
B)|-----0-3-5-1-3-0-0-1-5--------0-3-1-0---1-1-3-5--| es sonido
G)|-0-2-------------------2--0-2---------2---------2| de fondo)
D)|-------------------------------------------------|
A)|-------------------------------------------------|
E)|-------------------------------------------------|

e)|-------------------------------------------------|
B)|-----0-3-1-0---1-0--------0-3-1-0---1-3-1-0------|
G)|-0-2---------2-----2--0-2---------2---------2----|
D)|-------------------------------------------------|
A)|-------------------------------------------------|
E)|-------------------------------------------------|

            
            
Suggest correction
Creating personal tab
Creating personal tab
You can edit any tab online and save it as your Personal.

You can edit, replace or remove any tab part or add personal notes – all changes will be seen only by you.

Personal tabs can be accessed anytime from any device, even offline.
Learn more »
Give kudos to tab author, rate the tab!
1 2 3 4 5
comments
print report bad tab
guest
Wanna post a correction for this tab? Suggest correction