Oops, an error
Loading. Please wait.

No Es Cuestión De Suerte tab

by Rescate
65 views 1 this week
no commentswrite comment
1 2 3 4 5
3 more votes to show rating
add to favorites
×
Save as Personal and add changes to this tab that will be seen only by you. Learn more ›
×
You can save this tab as Personal to edit and correct it or add notes. All changes will be seen only by you. Learn more »
launch autoscroll
font size
0
reset
how to read this tab
guitar tuner
edit
Autoscroll
slow
fast
+/-
esc
set tempo
stop
Los acordes de este tema son lam rem (miM aqui con un adorno en la 
nota do de la 2º cuerda) y el CORO (rem solM faM miM) 
Este es el solo de RESCATE es muy fácil de tocarla escuchen el CD..... 
      

e----------------------|--------------------------------------------|         |--------------------------||
B-----12-13--15^15-15^-|------12-12''13-12''13----------------------| repetir |-13-15-15-15-15-15^-13----||
G---14-----14----------|----14----------------13''14-13-------------|         |----------------------14--||
D-14-------------------|--14---------------------------14''15-14-12-| riftt 1 |--------------------------||
A----------------------|--------------------------------------------|         |--------------------------||
E----------------------|--------------------------------------------|         |--------------------------||
 
e-----------------------------|               |---|---|---|---|
B-----------------------------| existe una    |---|---|-3-|---|no se como se llama
G-----------------------------| diferencia    |---|-2-|---|---|pero este es el acorde
D-14''15-14-12----------------| de acorde en  |---|---|-3-|---|la llamaremos si 9 m.
A-------------15-14(palanca)--| rem y es este |---|-2-|---|---|
E-----------------------------|               |---|---|---|---|
los adornos del tema son con distorsión
   y te diré            y así se va     esa noche me 
e--------------------|------12-15^-|-----------------------|
B--------13-15'''17^-|-13-14-------|-----------------------|
G-12'''14------------|-------------|-9'''10--10--10--9--7--|
D--------------------|-------------|-----------------------|
A--------------------|-------------|-7'''8---8---8---7--5--|
E--------------------|-------------|-----------------------|
     
                             
e--------------------------|           |---5-|       |-8-7-8-7---5--|
B--------------------------| se repite |--5--| si 9m |--------8-5---|
G-9'''10--10--10--9'''''12-| 7 veces   |-----|       |--------------|
D--------------------------|           |-----| miM   |--------------|
A-7'''8----8---8--7'''''10-|  (ojo)    |-----|       |--------------|
E--------------------------|           |-----|       |--------------|
     

la parte rápida            para final
e------------------------|--5----7----8-7-|-12''-12-11-13-13-12-----|
B---------------10-9-----|-5-5--5-5--5----|-------------------------|
G-------7-6-10-9----10-9-|----------------|-------------------------|
D----8-7-----------------|----------------|-------------------------|
A-8-7--------------------|----------------|-------------------------|
E------------------------|----------------|-------------------------|


eso es todo adiós y que la disfruten cualquier cosa solo me escriben
a mi correo espero les salga bien esta todo correcto si quieren que mande canciones
de RESCATE o de PUERTO solo escríbanme lo haré con mucho gusto hasta la 
próxima y que DIOS los bendiga........................

            
            
Suggest correction
Creating personal tab
Creating personal tab
You can edit any tab online and save it as your Personal.

You can edit, replace or remove any tab part or add personal notes – all changes will be seen only by you.

Personal tabs can be accessed anytime from any device, even offline.
Learn more »
Give kudos to tab author, rate the tab!
1 2 3 4 5
comments
print report bad tab
guest
Wanna post a correction for this tab? Suggest correction