Oops, an error
Loading. Please wait.

No Es Cuestión De Suerte bass

by Rescate
23 views 1 this week
no commentswrite comment
1 2 3 4 5
3 more votes to show rating
add to favorites
×
Save as Personal and add changes to this tab that will be seen only by you. Learn more ›
×
You can save this tab as Personal to edit and correct it or add notes. All changes will be seen only by you. Learn more »
launch autoscroll
font size
0
reset
guitar tuner
edit
Autoscroll
slow
fast
+/-
esc
set tempo
stop
      Lam        FaM  MiM                  Lam     FaM  MiM                   Lam    FaM  MiM 
G/---------------------------------------------------------------------------------------------------------------------
D/-------------------------------9------------------------------------9--------------------------------------9--------
A/------------7-8-7---------7-----8-7-----------7-8-7----------7-----8-7---------7-8-7------------7--------8-7-
E/-----5--------------7-------------------5---------------7-------------------5---------------7---------------------
               La ultima carta jugue               y del otro lado fue las              que determino que perdi mi...

       Lam     FaM  MiM                       Lam     FaM   MiM                  Lam...
G/-----------------------------------------------------------------------------------------------
D/---------------------------------------------------------------------9------------------------
A/-----------7-8-7-----------5-5-------------------7-8-7---------7-----8-7--------------
E/----5--------------7------------------------5---------------7-----------------5----------
        Partida       y moriré..                           Ruleta que decidía ...   etc.  etc.  etc.


ESTRIBILLO

  Esta es mi propia interpretaciòn de los bajos de esta canciòn.


   Rem         SolM             Rem              SolM             Rem         SolM            Rem               SolM
G/------------------------------------------------------------------------------------------------------------------------
D/--------7-----------------------------7--------------------------------7--------------------------7-------------------
A/--5---5--5-----------------3-5----5--5----------------------3-5---5-5---------------3-5----5--5-------------3-5-
E/---------------3--3-3----5-------------------3--3-3------5--------------3---3-3----5-----------------3?3-3-----
          Esa  --  noche  me jugue todo lo -- que consegui     el am...or que tanto ame como aposte lo perdí


     Rem           SolM         Rem            SolM           Rem          SolM       FaM     MiM
G/---------------------------------------------------------------------------------------------------------------------
D/----------7-------------------------7------------------------------7------------------------------------------------
A/---5---5--5---------------3-5---5--5-------------------3-5---5--5-------5---------3----------------------------
E/---------------3--3-3---5-----------------3---3-3----5----------------3-----3---1----1---0-------0-0-1-3-......
         no es mi noche  medite y la esperanza se va.....   casi ----pierdo la razon...  cuando me dicen.......


CORO

G/---------------------------------------------------------------------------------------------------------------------
D/-------------------------9-----------------------------------9-----------------------------------------------------
A/--------7-8-7-------7--------8-7----------7-8---------7-------8-7----------------------------------------------
E/---5-----------7-----------------------5-----------7--------------------------------------------------------------
       Corazón    no es cuestión de suerte noo  noo    etc... etc... etc...


Saludos especiales a German!!!

            
            
Suggest correction
Creating personal tab
Creating personal tab
You can edit any tab online and save it as your Personal.

You can edit, replace or remove any tab part or add personal notes – all changes will be seen only by you.

Personal tabs can be accessed anytime from any device, even offline.
Learn more »
Give kudos to tab author, rate the tab!
1 2 3 4 5
comments
print report bad tab
guest
Wanna post a correction for this tab? Suggest correction