Oops, an error
Loading. Please wait.

No Lo Sé bass

by Rescate
19 views 1 this week
no commentswrite comment
1 2 3 4 5
3 more votes to show rating
add to favorites
×
Save as Personal and add changes to this tab that will be seen only by you. Learn more ›
×
You can save this tab as Personal to edit and correct it or add notes. All changes will be seen only by you. Learn more »
launch autoscroll
font size
0
reset
guitar tuner
edit
Autoscroll
slow
fast
+/-
esc
set tempo
stop
No lo sé (BASS)

INTRO

G)---------------------------
D)---------------------------
A)---------------------------
E)--8-8-8-8-8-10-10-7-7-7-7--

G)-------------------------------------------
D)-------------------------------------------
A)---------------------------------5---------
E)--5-5-5-8-3-3-5-3-5--5-5-5-8-3-3---3-5-----

G)---------------------------------------------
D)---------------------------------------------
A)---------------------------------5-----------
E)--5-5-5-8-3-3-5-3-5--5-5-5-8-3-3---3-5-5-5-5-

G)----------------------------
D)----------------------------
A)----------------------------
E)----------------------------
  Como una visita inesperada.

G)-----------------------------------------------------
D)-----------------------------------------------------
A)-------------------------------------------5---------
E)-5--5--5--5--3--3---5-----5--5--5--5--3--3-----------
  Como ladrón en la noche, sin avisar su llegada.

G)----------------------------------
D)----------------------------------
A)----------------------------------
E)--3--3--5-----3--3--5-----3--3--5-
  Como las tormentas de verano.

G)-----------------------------------------------------
D)-----------------------------------------------------
A)-----------------------------------------------------
E)---3--3--5----3--3--5---3--3--5-------3--3--5--------
  El tiempo que te sorprende. Como es el tiempo tirano.

G)--------------------------
D)--------------------------
A)--------------------------
E)-3-3-5---3-3-5---3-3-5----
  Nadie sabe cuando pasará.

G)--------------------------------
D)--------------------------------
A)--------------------------------
E)-3-3-5---3-3-5---3-3-5---3-3-5--
  Las señales sobran ya.

G)-----------------------------------------
D)-----------------------------------------
A)-----------------------------------------
E)-3-3-5---3-3-5-8--7---5---3---3--3---3---
  Corazones preparados van por la ciudad.

CHORUS:

G)-----------------------------------
D)-----------------------------------
A)-5-3-5---3-2-3---2------------5--7-
E)-------------------3--5--5--8------
  Al partir se abrirá una flor.

G)---------------------------
D)---------------------------
A)-5-3-5--3-2-3--2-----------
E)------------------3-5-3-5--
  El placer de volar.

G)-------------------------------------
D)-------------------------------------
A)-5-3-5---3-2-3---2------------5--7---
E)-------------------3-5--5---8--------
  Brillarás tanto como el sol.

G)------------------------------------
D)------------------------------------
A)-5-3-5------------------------------
E)--------3-2-3----5-5-5-8-3-3-5-3-5--
  ¿Cuándo será?


G)---------------------------------------------------------------
D)---------------------------------------------------------------
A)-------------------------------5-----------------------------5-
E)-------5-5-5-8-3-3---3-5-5-5-5-------5-5-5-8-3-3---3-5-5-5-5---
  Oh, oh, oh,                     No lo sé.      Oh, oh, oh.

G)-----------------------------------------------------
D)-----------------------------------------------------
A)-----------------------------------------------------
E)-----------------------------------------------------
  Mente y cuerpo sanó me decían.

G)--------------------------------------------------------
D)--------------------------------------------------------
A)--------------------------------------------------5-----
E)-5--5--5--5---3---3---5--------5--5--5--5---3---3-------
  No tiene gracia querida, si no hay perdón no hay salida.


G)--------------------------------------------
D)--------------------------------------------
A)--------------------------------------------
E)--3--3--5-----3--3--5-----3--3--5--3--3--5--
  No serán tus obras los laureles,


G)---------------------------------------------------------
D)---------------------------------------------------------
A)---------------------------------------------------------
E)--3--3--5----3--3--5---3--3--5-------3--3--5----3--3--5--
  Será la gracia divina,    será el clamor de los fieles.

G)---------------------------------
D)---------------------------------
A)-5--3--5----5--3--5--------------
E)---------------------3-5--3-3-5--
  Nadie sabe cuando pasará.

G)---------------------------------
D)---------------------------------
A)-5--3--5----5--3--5--------------
E)---------------------3-5--3-3-5--
  Las señales Suenan  ya.

G)-----------------------------------------
D)-----------------------------------------
A)-----------------------------------------
E)-3-3-5---3-3-5-8--7---5---3---3--3---3---
  Corazones preparados van por la ciudad.


CHORUS


G)-----------------------------------
D)-----------------------------------
A)-5-3-5---3-2-3---2------------5--7-
E)-------------------3--5--5--8------
  Cantaré la nueva canción,

G)---------------------------
D)---------------------------
A)-5-3-5--3-2-3--2-----------
E)------------------3-5-3-5--
  Con los Santos en luz.

G)-------------------------------------
D)-------------------------------------
A)-5-3-5---3-2-3---2------------5--7---
E)-------------------3-5--5---8--------
  Volverá   como   prometió.

G)------------------------------------
D)------------------------------------
A)-5-3-5------------------------------
E)--------3-2-3----5-5-5-8-3-3-5-3-5--
  ¿Cuándo será?


G)---------------------------------------------------------------------
D)---------------------------------------------------------------------    Tres
A)-------------------------------5-----------------------------5-------   Veces
E)-------5-5-5-8-3-3---3-5-5-5-5-------5-5-5-8-3-3---3-5-5-5-5---------
  Oh, oh, oh,                     No lo sé.      Oh, oh, oh.   No lose

G)--------------------
D)--------------------
A)--------------------
E)-5--5--5--5--5--5---
   no no no no no no


Dedicado al amor de mi vida Milagros Bocanegra

            
            
Suggest correction
Creating personal tab
Creating personal tab
You can edit any tab online and save it as your Personal.

You can edit, replace or remove any tab part or add personal notes – all changes will be seen only by you.

Personal tabs can be accessed anytime from any device, even offline.
Learn more »
Give kudos to tab author, rate the tab!
1 2 3 4 5
comments
print report bad tab
guest
Wanna post a correction for this tab? Suggest correction