Oops, an error
Loading. Please wait.

Qué Pasa Afuera? tab

by Rescate
22 views 1 this week
no commentswrite comment
1 2 3 4 5
3 more votes to show rating
add to favorites
×
Save as Personal and add changes to this tab that will be seen only by you. Learn more ›
×
You can save this tab as Personal to edit and correct it or add notes. All changes will be seen only by you. Learn more »
launch autoscroll
font size
0
reset
how to read this tab
guitar tuner
edit
Autoscroll
slow
fast
+/-
esc
set tempo
stop
Septimo Track del disco ¡Arriba!

NOTA: Los punteos lo hace la primera guitarra
Y los acordes la segunda guitarra.

INTRO: Gm

e) |-----------------------|
B) |-----------------------|
G) |-----------------------|
D) |--5-5-5-5--------------| X8
A) |-----------------------|
E) |-3---------------------|

1er Verso:
Gm
Hey! hey! Hoy te vas a mover.
e) |----1----1---------|
B) |----1----1---------|
G) |----1----1---------|
D) |----3----3---------|X4
A) |--5----5-----------|
E) |--3----3-----------|

Gm                         Cm
Hey! hey! Agua para beber
                          e) |--3--------3-------|
                          B) |----4--------4-----|
                          G) |------5--------5---|
                          D) |--------5-------5--|
                          A) |-------------------|
                          E) |-------------------|
G#              Cm
Ya no queda tiempo para perder
Gm
Hay! hay! donde quieres estar,
e) |----1----1---------|
B) |----1----1---------|
G) |----1----1---------|
D) |----3----3---------|X4
A) |--5----5-----------|
E) |--3----3-----------|

Gm                           Cm
Hay! hay! yo te puedo llevar
                          e) |--3--------3-------|
                          B) |----4--------4-----|
                          G) |------5--------5---|
                          D) |--------5-------5--|
                          A) |-------------------|
                          E) |-------------------|
G#                Cm             Gm
No te pierdas esta oportunidad,
                          e) |-----------3-5-6--|
                          B) |---------3--------|
                          G) |-------3----------|
                          D) |-----5------------|
                          A) |------------------|
                          E) |------------------|

G#
Para poder amar.

CORO:

   Gm
   Hoy salí, de las paredes,
e) |-----------------------|
B) |-----------------------|
G) |-----------------------|
D) |--5-5-5-5--------------| X4
A) |-----------------------|
E) |-3---------------------|

   Dm
   Hoy salí, de las paredes,
e) |-----------------------|
B) |-----------------------|
G) |-----------------------|
D) |--7-7-7-7--------------| X4
A) |-----------------------|
E) |-5---------------------|

    Cm                          Gm
   Para ver lo que pasa afuera.
E) |-----------------------|    E) |-----------------------|
B) |-----------------------|    B) |-----------------------|
G) |---5-5-5-5-------------|    G) |-----------------------|
D) |-----------------------| X4 D) |----5-5-5-5------------| X4
A) |--3--------------------|    A) |-----------------------|
E) |-----------------------|    E) |--3--------------------|


   Gm
   Decidí saltar sin redes,
e) |------------------------|
B) |------------------------|
G) |------------------------|
D) |--5-5-5-5---------------| X4
A) |------------------------|
E) |-3----------------------|
   Dm
   decidí saltar sin redes.
e) |-----------------------|
B) |-----------------------|
G) |-----------------------|
D) |--7-7-7-7--------------| X4
A) |-----------------------|
E) |-5---------------------|

Cm                                 Gm
Y esperar que tu mano me sostenga.
E) |-----------------------|    E) |-----------------------|
B) |-----------------------|    B) |-----------------------|
G) |---5-5-5-5-------------|    G) |-----------------------|
D) |-----------------------| X4 D) |----5-5-5-5------------| X4
A) |--3--------------------|    A) |-----------------------|
E) |-----------------------|    E) |--3--------------------|

2DO VERSO:

Gm
Hey! hey! Mira ya son las 6.
e) |----1----1---------|
B) |----1----1---------|
G) |----1----1---------|
D) |----3----3---------|X4
A) |--5----5-----------|
E) |--3----3-----------|

Gm                       Cm
Hey! hey! No me digas Ok.
                          e) |--3--------3-------|
                          B) |----4--------4-----|
                          G) |------5--------5---|
                          D) |--------5-------5--|
                          A) |-------------------|
                          E) |-------------------|
G#             Cm
Porque la ciudad no va nada bien.
Gm
Hay! hay! cuanto pibe que cae.
e) |----1----1---------|
B) |----1----1---------|
G) |----1----1---------|
D) |----3----3---------|X4
A) |--5----5-----------|
E) |--3----3-----------|

Gm                           Cm
Hay! hay! cuanta gente se vá.
                          e) |--3--------3-------|
                          B) |----4--------4-----|
                          G) |------5--------5---|
                          D) |--------5-------5--|
                          A) |-------------------|
                          E) |-------------------|
G#                Cm              Gm
¿Dónde esta la puerta para pasar?
                          e) |-----------3-5-6--|
                          B) |---------3--------|
                          G) |-------3----------|
                          D) |-----5------------|
                          A) |------------------|
                          E) |------------------|
G#
Para poder amar.

CORO:

 Gm
   Hoy salí, de las paredes,
e) |-----------------------|
B) |-----------------------|
G) |-----------------------|
D) |--5-5-5-5--------------| X4
A) |-----------------------|
E) |-3---------------------|

   Dm
   Hoy salí, de las paredes,
e) |-----------------------|
B) |-----------------------|
G) |-----------------------|
D) |--7-7-7-7--------------| X4
A) |-----------------------|
E) |-5---------------------|

    Cm                          Gm
   Para ver lo que pasa afuera.
E) |-----------------------|    E) |-----------------------|
B) |-----------------------|    B) |-----------------------|
G) |---5-5-5-5-------------|    G) |-----------------------|
D) |-----------------------| X4 D) |----5-5-5-5------------| X4
A) |--3--------------------|    A) |-----------------------|
E) |-----------------------|    E) |--3--------------------|


   Gm
   Decidí saltar sin redes,
e) |------------------------|
B) |------------------------|
G) |------------------------|
D) |--5-5-5-5---------------| X4
A) |------------------------|
E) |-3----------------------|
   Dm
   decidí saltar sin redes.
e) |-----------------------|
B) |-----------------------|
G) |-----------------------|
D) |--7-7-7-7--------------| X4
A) |-----------------------|
E) |-5---------------------|

Cm                                 Gm
Y esperar que tu mano me sostenga.
E) |-----------------------|    E) |-----------------------|
B) |-----------------------|    B) |-----------------------|
G) |---5-5-5-5-------------|    G) |-----------------------|
D) |-----------------------| X4 D) |----5-5-5-5------------| X4
A) |--3--------------------|    A) |-----------------------|
E) |-----------------------|    E) |--3--------------------|

3er Verso:

D# *pausa*
Tanto tiempo por perder,

A#                  Cm                   Gm - Am - A# - Dm
 tanto por haceeeeeeeer,  tanto por vivir.
E) |--1--1-------|   |--1----1---------|
B) |--3--3-------|   |--4----4---------|
G) |--3--3-------|   |--5----5---------|
D) |--3--3-------|X2 |--5----5---------|X2
A) |-1--1--------|   |-3----3----------|
E) |-1--1--------|   |-3----3----------|

D# *pausa*
Tanto tiempo para dar,

A#                  Cm                   Dm
 pero sin amoooooooooor, nada servirá.
E) |--1--1-------|   |--1----1---------|
B) |--3--3-------|   |--4----4---------|
G) |--3--3-------|   |--5----5---------|
D) |--3--3-------|X2 |--5----5---------|X2
A) |-1--1--------|   |-3----3----------|
E) |-1--1--------|   |-3----3----------|

Gm - Dm - Dm - Cm - Gm (guiense por el sonido de la guitarra)

CORO:
   Gm
   Atraviesa las paredes
e) |-----------------------|
B) |-----------------------|
G) |-----------------------|
D) |--5-5-5-5--------------| X4
A) |-----------------------|
E) |-3---------------------|

   Dm
   Atraviesa las paredes
e) |-----------------------|
B) |-----------------------|
G) |-----------------------|
D) |--7-7-7-7--------------| X4
A) |-----------------------|
E) |-5---------------------|

    Cm                          Gm
   Para ver lo que pasa afuera.
E) |-----------------------|    E) |-----------------------|
B) |-----------------------|    B) |-----------------------|
G) |---5-5-5-5-------------|    G) |-----------------------|
D) |-----------------------| X4 D) |----5-5-5-5------------| X4
A) |--3--------------------|    A) |-----------------------|
E) |-----------------------|    E) |--3--------------------|


   Gm
   Decidí saltar sin redes,
e) |------------------------|
B) |------------------------|
G) |------------------------|
D) |--5-5-5-5---------------| X4
A) |------------------------|
E) |-3----------------------|
   Dm
   decidí saltar sin redes.
e) |-----------------------|
B) |-----------------------|
G) |-----------------------|
D) |--7-7-7-7--------------| X4
A) |-----------------------|
E) |-5---------------------|

Cm                                 Gm - Am - A# - Dm
Y esperar que tu mano me sostenga.
E) |-----------------------|    E) |-----------------------|
B) |-----------------------|    B) |-----------------------|
G) |---5-5-5-5-------------|    G) |-----------------------|
D) |-----------------------| X4 D) |----5-5-5-5------------| X4
A) |--3--------------------|    A) |-----------------------|
E) |-----------------------|    E) |--3--------------------|
Cm                                Gm - Am - A# - Dm
Y esperar que tu mano me sostenga.
E) |-----------------------|    E) |-----------------------|
B) |-----------------------|    B) |-----------------------|
G) |---5-5-5-5-------------|    G) |-----------------------|
D) |-----------------------| X4 D) |----5-5-5-5------------| X4
A) |--3--------------------|    A) |-----------------------|
E) |-----------------------|    E) |--3--------------------|

Cm                                Gm
Y esperar que tu mano me sostenga.
                              e) |----1----1---------|
                              B) |----1----1---------|
                              G) |----1----1---------|
                              D) |----3----3---------|
                              A) |--5----5-----------|
                              E) |--3----3-----------|

¡Increible cancion!
Saludos
Suggest correction
Creating personal tab
Creating personal tab
You can edit any tab online and save it as your Personal.

You can edit, replace or remove any tab part or add personal notes – all changes will be seen only by you.

Personal tabs can be accessed anytime from any device, even offline.
Learn more »
Give kudos to tab author, rate the tab!
1 2 3 4 5
comments
print report bad tab
guest
Wanna post a correction for this tab? Suggest correction