Oops, an error
Loading. Please wait.

Quiero Más (Paz) tab

by Rescate
101 views 1 this week
no commentswrite comment
1 2 3 4 5
3 more votes to show rating
add to favorites
×
Save as Personal and add changes to this tab that will be seen only by you. Learn more ›
×
You can save this tab as Personal to edit and correct it or add notes. All changes will be seen only by you. Learn more »
launch autoscroll
font size
0
reset
how to read this tab
guitar tuner
edit
Autoscroll
slow
fast
+/-
esc
set tempo
stop
Hola !!! Aca les dejo el Intro de este tema que esta muy bueno
este punteo esta en SIm


e --------------------------------------------3-2---2-----------
B ---------------3v---------------2v--------------5---3-5--2-3--
G -----------4----------------3-------------4-------------------
D -0-2-4-4/5---5--------2-3-4---4-------4/5---------------------
A --------------------3-----------------------------------------
E --------------------------------------------------------------


e --------------------------------------------------------------
B ---2----------------------------------------------------------
G -4---2-4------------------------------------------------------
D ------------4/5-4-2-------------------------------------------
A --------------------5-4-2-------------------------------------
E --------------------------5-4-2-------------------------------


Bueno ahy esta espero que les sirvas jeje Saludos!!!!

            
            
Suggest correction
Creating personal tab
Creating personal tab
You can edit any tab online and save it as your Personal.

You can edit, replace or remove any tab part or add personal notes – all changes will be seen only by you.

Personal tabs can be accessed anytime from any device, even offline.
Learn more »
Give kudos to tab author, rate the tab!
1 2 3 4 5
comments
print report bad tab
guest
Wanna post a correction for this tab? Suggest correction