Oops, an error
Loading. Please wait.

Cosas Que Nadie Oía chords

46 views 1 this week
no commentswrite comment
1 2 3 4 5
3 more votes to show rating
add to favorites
×
Save as Personal and add changes to this tab that will be seen only by you. Learn more ›
×
You can save this tab as Personal to edit and correct it or add notes. All changes will be seen only by you. Learn more »
launch autoscroll
font size
0
reset
transpose
0
reset
display chords
guitar tuner
edit
Autoscroll
slow
fast
+/-
esc
set tempo
stop
Strumming
There is no strumming pattern for this song yet. and get +5 IQ
INTRO: F-D-Cm x 2

La guitarra puntea esto:


       F     D#  D RE# C (hace arpegio en do menor)
e|-----------------------------------------
B|-----------------------------------------
G|-----10----8---7--8-h-5------------------
D|-----------------------------------------
A|------------------------------------------
E|------------------------------------------

        F     D#  F G      D#  C (hace arpegio en do menor)
e|-------------------------------------
B|-------------------------------------
G|-----10---8---10s12--------8-----5v--
D|-------------------------------------
A|-------------------------------------
E|-------------------------------------


aca viene el RIFF x 4: (en la ultima nota hacer vibrato=dejar sonar)


e|--------------------------------------
B|--------------------------------------
G|--------------------------------------
D|----0--1------------------------------
A|--------------3-3-3----------1-----3--
E|-------------------------3------------


y aca viene el temita:

En las estrofas hace siempre DOm y en el estribillo hace FA-RE-DOm


Cm
La zona esta difícil hay humo en todas partes
Serpientes venenosas que tratan de picarme
Amigos que traicionan y fingen ayudarte
pero ríen como hienas cuando logran derribarte

F D                     Cm
Siiiiiiiii en la selva de hoy amigo yo estoy

La zona esta difícil cuantos ríos cruzaste ?
Hambrientos cocodrilos tratan de devorarte
Esperando pacientes ocultos bajo el agua
Esperando que cruces y caigas en sus fauces

Si en la selva de hoy amigo yo estoy
Si en la selva de hoy

Peleando por mi vida, peleando por mi vida
Peleándole a la vida, peleando por mi vida

La zona esta difícil buitres por todas partes
Esperando que mueras para despedazaste
Justicia es una trampa muy lenta y arrogante
Que atrapa ratoncitos pero nunca un elefante

Si en la selva de hoy amigo yo estoy

No quieran mis palabras cambiar algo en este mundo
Cambiarme a mí mismo es lo único que busco
Sobre las brazas de mi ego yo camine descalzo
Nadé en las turbulentas aguas de mi arrogancia
Atravesé desnudo el lente frío de tus ojos
Bajé canciones tibias de tu frío silencio
El humo de mis dudas yo lo hinale en el acto
Y me fui cantando cosas que nadie oía

Cosas que nadie oía
Cosas que nadie oía
Cosas que nadie oía
Cosas que nadie oía


ahi se ven!

            
            
Suggest correction
Creating personal tab
Creating personal tab
You can edit any tab online and save it as your Personal.

You can edit, replace or remove any tab part or add personal notes – all changes will be seen only by you.

Personal tabs can be accessed anytime from any device, even offline.
Learn more »
Give kudos to tab author, rate the tab!
1 2 3 4 5
comments
print report bad tab
guest
Wanna post a correction for this tab? Suggest correction