Oops, an error
Loading. Please wait.

Real Peso Guaraní tab

35 views 1 this week
no commentswrite comment
1 2 3 4 5
3 more votes to show rating
add to favorites
×
Save as Personal and add changes to this tab that will be seen only by you. Learn more ›
×
You can save this tab as Personal to edit and correct it or add notes. All changes will be seen only by you. Learn more »
launch autoscroll
font size
0
reset
how to read this tab
guitar tuner
edit
Autoscroll
slow
fast
+/-
esc
set tempo
stop
afinación ( DROP D )

inro
e|----------------------------------
B|----------------------------------
G|----------------------------------  X2
D|-----------------------3-p-0------
A|--3-h-5------3-h-5----------------
D|--------000--------000-------00---


e|----------------------------------|-------------------55-33---|
B|----------------------------------|-------------55-33---------|
G|----------------------------------|-------77-55---------------| x1
D|-----------------------3-p-0------|----55---------------------|
A|--3-h-5------3-h-5----------------|---------------------------|
D|--------000--------000-------00---|---------------------------|

mangoman
e|----------------------------------
B|----------------------------------
G|----------------------------------
D|-----------------------3-p-0------
A|--3-h-5------3-h-5----------------
D|--------000--------000-------00---
oido de nailon
e|----------------------------------
B|----------------------------------
G|----------------------------------
D|-----------------------3-p-0------
A|--3-h-5------3-h-5----------------
D|--------000--------000-------00---
cosechando mi raiz, cambiando mi matiz
e|----------------------------------|-------------------55-33---|
B|----------------------------------|-------------55-33---------|
G|----------------------------------|-------77-55---------------|
D|-----------------------3-p-0------|----55---------------------|
A|--3-h-5------3-h-5----------------|---------------------------|
D|--------000--------000-------00---|---------------------------|
dibujando
e|----------------------------------
B|----------------------------------
G|----------------------------------
D|-----------------------3-p-0------
A|--3-h-5------3-h-5----------------
D|--------000--------000-------00---
sin lapiz, ni papelllll
e|----------------------------------
B|----------------------------------
G|----------------------------------
D|-----------------------3-p-0------
A|--3-h-5------3-h-5----------------
D|--------000--------000-------00---
llllllllllll........ooohhhhhhh
e|----------------------------------|----------------------|
B|----------------------------------|----------------------|
G|----------------------------------|----------------------|
D|-----------------------3-p-0------|----------------------|
A|--3-h-5------3-h-5----------------|---5---3---0----------|
D|--------000--------000-------00---|---------------5------|

                --- CORO ---
quiero mas de..             mangore
e|------------------------------------|
B|------------------------------------|
G|------------------------------------|
D|------------------------------------|
A|------------------------------------|
D|--3-p-0-000--3-p-0-000----5p0-5p0---|
          ***        ***
quiero mas de..              tereré
e|------------------------------------|
B|------------------------------------|
G|------------------------------------|
D|------------------------------------|
A|------------------------------------|
D|--3-p-0-000--3-p-0-000----5p0-5p0---|
          ***        ***
quiero mas de..           paranaaaaaaaaaaaaaaaaaa
e|------------------------------------|--------------------|
B|------------------------------------|--------------------|
G|------------------------------------|--------------------|
D|------------------------------------|--------------------|
A|------------------------------------|---5---3---0--------|
D|--3-p-0-000--3-p-0-000----5p0-5p0---|---------------5----|
          ***        ***
quiero mas de..           chilavert
e|------------------------------------|
B|------------------------------------|
G|------------------------------------|
D|------------------------------------|
A|------------------------------------|
D|--3-p-0-000--3-p-0-000----5p0-5p0---|
          ***        ***

quiero mas de..           roa bastos
e|------------------------------------|
B|------------------------------------|
G|------------------------------------|
D|------------------------------------|
A|------------------------------------|
D|--3-p-0-000--3-p-0-000----5p0-5p0---|
          ***        ***

quiero mas de..           quemil yambayyyyyyyy....
e|------------------------------------|-----------------------|
B|------------------------------------|-----------------------|
G|------------------------------------|-----------------------|
D|------------------------------------|-----------------------|
A|------------------------------------|---5---3---0-----------|
D|--3-p-0-000--3-p-0-000----5p0-5p0---|---------------5-------|
          ***        ***


e|----------------------------------
B|----------------------------------
G|----------------------------------X2
D|-----------------------3-p-0------
A|--3-h-5------3-h-5----------------
D|--------000--------000-------00---

e|----------------------------------|-------------------55-33---|
B|----------------------------------|-------------55-33---------|
G|----------------------------------|-------77-55---------------| x1
D|-----------------------3-p-0------|----55---------------------|
A|--3-h-5------3-h-5----------------|---------------------------|
D|--------000--------000-------00---|---------------------------|

esta el mango
e|----------------------------------
B|----------------------------------
G|----------------------------------
D|-----------------------3-p-0------
A|--3-h-5------3-h-5----------------
D|--------000--------000-------00---

tirado por las calles
e|----------------------------------
B|----------------------------------
G|----------------------------------
D|-----------------------3-p-0------
A|--3-h-5------3-h-5----------------
D|--------000--------000-------00---
su guitarra un armaaaaaaaaaa....
e|----------------------------------|-------------------55-33---|
B|----------------------------------|-------------55-33---------|
G|----------------------------------|-------77-55---------------|
D|-----------------------3-p-0------|----55---------------------|
A|--3-h-5------3-h-5----------------|---------------------------|
D|--------000--------000-------00---|---------------------------|
mango..man
e|----------------------------------
B|----------------------------------
G|----------------------------------
D|-----------------------3-p-0------
A|--3-h-5------3-h-5----------------
D|--------000--------000-------00---
mango..man
e|----------------------------------
B|----------------------------------
G|----------------------------------
D|-----------------------3-p-0------
A|--3-h-5------3-h-5----------------
D|--------000--------000-------00---
mango..maaaaannnn....
e|----------------------------------|----------------------|
B|----------------------------------|----------------------|
G|----------------------------------|----------------------|
D|-----------------------3-p-0------|----------------------|
A|--3-h-5------3-h-5----------------|---5---3---0----------|
D|--------000--------000-------00---|---------------5------|
                       --- CORO ---
quiero mas de..           guarani
e|------------------------------------|
B|------------------------------------|
G|------------------------------------|
D|------------------------------------|
A|------------------------------------|
D|--3-p-0-000--3-p-0-000----5p0-5p0---|
          ***        ***
quiero mas de..           lealtad
e|------------------------------------|
B|------------------------------------|
G|------------------------------------|
D|------------------------------------|
A|------------------------------------|
D|--3-p-0-000--3-p-0-000----5p0-5p0---|
          ***        ***
quiero mas de..           del que se queda
e|------------------------------------|-----------------------|
B|------------------------------------|-----------------------|
G|------------------------------------|-----------------------|
D|------------------------------------|-----------------------|
A|------------------------------------|---5---3---0-----------|
D|--3-p-0-000--3-p-0-000----5p0-5p0---|---------------5-------|
          ***        ***
quiero mas de..              yuyos
e|------------------------------------|
B|------------------------------------|
G|------------------------------------|
D|------------------------------------|
A|------------------------------------|
D|--3-p-0-000--3-p-0-000----5p0-5p0---|
          ***        ***
quiero mas de..             flores
e|------------------------------------|
B|------------------------------------|
G|------------------------------------|
D|------------------------------------|
A|------------------------------------|
D|--3-p-0-000--3-p-0-000----5p0-5p0---|
          ***        ***
quiero mas de..                alberto rodas
e|------------------------------------|-----------------------|
B|------------------------------------|-----------------------|
G|------------------------------------|-----------------------|
D|------------------------------------|-----------------------|
A|------------------------------------|---5---3---0-----------|
D|--3-p-0-000--3-p-0-000----5p0-5p0---|---------------5-------|
          ***        ***

solo...

leni craviz dice que        es que no vive
e|------------------------|-----------------------|
B|------------------------|-----------------------|
G|------------------------|----------------5555---|
D|----------------3333----|--7777-5-7-5-77--------|
A|--5555-3-5-3-55---------|-----------------------|
D|------------------------|-----------------------|
solo nesecita amor           en sudamericaaaaaa
e|------------------------|-----------------------|---------------|
B|------------------------|-----------------------|---------------|
G|------------------------|----------------5555---|---------------|
D|----------------3333----|--7777-5-7-5-77--------|---------------|
A|--5555-3-5-3-55---------|-----------------------|---5--3--0-----|
D|------------------------|-----------------------|------------5--|


e|------------------------------------|
B|------------------------------------|
G|------------------------------------|
D|------------------------------------|
A|------------------------------------|
D|--3-p-0-000--3-p-0-000----5p0-5p0---|
          ***        ***

e|------------------------------------|
B|------------------------------------|
G|------------------------------------|
D|------------------------------------|
A|------------------------------------|
D|--3-p-0-000--3-p-0-000----5p0-5p0---|
          ***        ***
e|------------------------------------|-----------------------|
B|------------------------------------|-----------------------|
G|------------------------------------|-----------------------|
D|------------------------------------|-----------------------|
A|------------------------------------|---5---3---0-----------|
D|--3-p-0-000--3-p-0-000----5p0-5p0---|---------------5-------|
          ***        ***

final repite  este riff
e|-----------------------|--------------
B|-----------------------|--------------
G|-----------------------|--------------
D|-----------------------|--------------
A|---5---3---0-----------|--------------
D|---------------5-------|-----5~~~~~~--dale pue carajo


* = palm muted
~ = vibrato
h = hammer-on
p = pull-off

            
            
Suggest correction
Creating personal tab
Creating personal tab
You can edit any tab online and save it as your Personal.

You can edit, replace or remove any tab part or add personal notes – all changes will be seen only by you.

Personal tabs can be accessed anytime from any device, even offline.
Learn more »
Give kudos to tab author, rate the tab!
1 2 3 4 5
comments
print report bad tab
guest
Wanna post a correction for this tab? Suggest correction